acordes.cc 
 letras y acordes > f > los fundamentalistas del aire acondicionado > mi caramel machiato diccionario de acordes 
Mi caramel machiato de Los Fundamentalistas del Aire Acondicionado
AUTOR: Carlos
Los Fundamentalistas del Aire Acondicionado Tabs
LaCuerda.net
imprimir Mi caramel machiato de Los Fundamentalistas del Aire Acondicionado 
Intro: Riff1

RIFF2 Y RIFF1
Soy 'el monsieur', un héroe en Berisso
RIFF2 Y RIFF1
Yo soy el swami que no caga jamás
RIFF2 Y RIFF1
Soy el terrible 'peditos de Zorro'
RIFF2 Y RIFF1
Y sin embargo causo siempre adicción

E5             G5       A5
Hay mucha piel de gallina a mi lado
E5          G5         A5
Y mucho pito de porro y cognac

RIFF2 Y RIFF1
Deborah Vip, mi fiel enamorada
RIFF2 Y RIFF1
Carga sangría en termos de telgopor
RIFF2 Y RIFF1
Nadie la puede comprar con dinero
RIFF2 Y RIFF1
Ella se cobra con favores nomás

E5         G5        A5
La abandoné en una rave de Astrolandia
E5         G5        A5
(No quiere darme otra oportunidad)

RIFF2 Y RIFF1
Así va mi amor, felpudo de mi alma
RIFF2 Y RIFF1
(Tratándose de un jamonero, está mal!)
RIFF2 Y RIFF1
En trance en la Catedral de La Plata
RIFF2 Y RIFF1
Y... cosa rara!... vengo de un palizón

E5       G5       A5
Me machacó feo, como a un pelele
E5       G5        A5
Y burbujeando mi nata escapó

RIFF2 Y RIFF1
Ya me compré un patero de la costa
RIFF2 Y RIFF1
Allá... en la Isla Paulino, dulzón
RIFF2 Y RIFF1
Ahora que llueve y hace mucho frío...
RIFF2 Y RIFF1
Voy murmurando -'está bie, vos ganás...'

E5       G5          A5
Soy viborita que quiso un milagro
E5        G5         A5
Y en ese día la hicieron bastón!...
RIFF2 Y RIFF1
Toda la sangre se fue de mi cuerpo
RIFF2 Y RIFF1
Soy un fantasma quieto...

RIFF1
E|--3--5--3----------------------3--5-------------------|
B|--------------3-2-0-2-3-----3----------3-2-0-2-0------|
G|-------------------------------------------------0----|
D|------------------------------------------------------|
A|------------------------------------------------------|
E|------------------------------------------------------|


RIFF2
E|------------------------------------------------------|
B|--8-----8-----10--8-------------8-----10---8------8---|
G|-----9-----9---------9-9-----9-----9----------9-------|
D|------------------------------------------------------|
A|------------------------------------------------------|
E|------------------------------------------------------|



yo solo pido q se vuelvan a juntar
Este fichero es trabajo propio de su transcriptor y representa su interpretación personal de la canción. El material contenido en esta página es para exclusivo uso privado, por lo que se prohibe su reproducción o retransmisión, así como su uso para fines comerciales.

Fuente: Mi caramel machiato: Letra y Acordes (LaCuerda.net)


Otras partituras que podrían interesarte: