acordes.cc 
 letras y acordes > r > reincidentes > guiar de guor diccionario de acordes 
Guiar de guor de Reincidentes
AUTOR: -?-
Reincidentes Tabs
LaCuerda.net
imprimir Guiar de guor de Reincidentes 
Intro
-----
G C G D G C D

Estrofa
-------
G       D
Los elejidos del rock
G     E6   D    G
han sacado una cancion
              D        C
contra el mal huso del alcohol

Estribillo:
----------
C      G     D
Quiero beber mucho esta noche
y luchar mas y mejor
pasame la priva hay la ostia
ay cosas ke van peor

Final:
-----
         C   D
Guiar de guor
          G F# E
guiar de children
               C
si asi esta el gremio
     D            G
nosotros vamos por libre


Solo:
-----
E|--2-3-3-3-3---9-10-10-10-10---2-3-3-3-3-|
B|--2-3-3-3-3---9-10-10-10-10---2-3-3-3-3-|
G|----------------------------------------|
D|----------------------------------------|
A|----------------------------------------|
E|----------------------------------------|

|-------7------2-3-3-3-3--9-10-10-10-10-----------|
|-----8---10~--2-3-3-3-3--9-10-10-10-10-----------|
|-7-9---------------------------------------------|
|-------------------------------------------------|
|-------------------------------------------------|
|-------------------------------------------------|

E|-----------------------------|
B|---8-------------------------|
G|--9--9-7----7----------------|
D|---------10---10-9-----------|
A|-------------------12-10-----|
E|-----------------------------|
Este fichero es trabajo propio de su transcriptor y representa su interpretación personal de la canción. El material contenido en esta página es para exclusivo uso privado, por lo que se prohibe su reproducción o retransmisión, así como su uso para fines comerciales.

Fuente: Guiar de guor: Letra y Acordes (LaCuerda.net)


Otras partituras que podrían interesarte: