acordes.cc 
 letras y acordes > c > la castañeda > luna metafísica diccionario de acordes 
Luna Metafísica de la Castañeda
AUTOR: Salvador
la Castañeda Tabs
LaCuerda.net
imprimir Luna Metafísica de la Castañeda 
NOTA: DISCULPEN PUES NO SE COMO SE EXPRESE LA 
LO PONDRE PARA QUE LO DISTINGAN ASI    A?

e-0--------I
B-3--------I
G-2--------I
D-2--------I
A-0--------I
E----------I

ALEJANDRO SAMMET.Mo.La.
SPEEDMETAL@HOTMAIL.COM

riff (x2) (octavas)

e-------------------------------------------------
B-------------------------------------------------
G-------------------------------------------------
D-7--7--7---7--7--7---9--9--9---9--9--9-----------
A-0--0--0---0--0--0---0--0--0---0--0--0-----------
E-5--5--5---5--5--5---7--7--7---7--7--7-----------

e-------------------------------------------------
B-------------------------------------------------
G-------------------------------------------------
D-11-11-11--12-12-12- 11-11-11--------------------
A-0--0--0---0--0--0---0--0--0---------------------
E-9--9--9---10-10-10--9--9--9---------------------


A
Eres mi joya revelde, 

A
un trago de gloria

A
un toque de gracia

A
de buena ventura


A            A?      
y luces 
            A            A?  
pequeña y hermosa

  A            A? 
tacones de nube

  A            A? 
centellas de aretes

          A            A? 
y rayos de suerte    HEEE...


A            A?              
SI ries 

        A            A? 
tu risa rebota 

          A            A? 
como la fortuna que va renobando

           A            A?  
aquello que toca    HAAA..


CORO.

D         E 
luna metafisica 

 A    G#           F#   (E) 
coneccion por siempre 

D         E
luna metafisica

 A          G#  F#           G#  F#      E    D          
no lo creia y tocas la realidad



y juegas, transformas, los sapos

despiertan los signos

al sabio dormido

de cierto olvidado


me cuentas que un angel que vaja

sobre un unicornio  

dijo que el mundo

no se partira

a saday saday

EN LA PARTRE DE LA LETRA QUE NO ESCRIBI LOS ACORDES,
ES POR QUE SE BUELVE A REPETIR EL CUERPO DE LA
CANCION AL IGUAL QUE EL CORO.

NOTA: DISCULPEN PUES NO SE COMO SE EXPRESE LA 
LO PONDRE PARA QUE LO DISTINGAN ASI    A?

e-0--------I
B-3--------I
G-2--------I
D-2--------I
A-0--------I
E----------I

ALEJANDRO SAMMET.Mo.La.
SPEEDMETAL@HOTMAIL.COM
Este fichero es trabajo propio de su transcriptor y representa su interpretación personal de la canción. El material contenido en esta página es para exclusivo uso privado, por lo que se prohibe su reproducción o retransmisión, así como su uso para fines comerciales.

Fuente: Luna Metafísica: Letra y Acordes (LaCuerda.net)


Otras partituras que podrían interesarte: