acordes.cc 
 letras y acordes > r > razones de cambio > solíamos diccionario de acordes 
Solíamos de Razones de Cambio
AUTOR: -?-
Razones de Cambio Tabs
LaCuerda.net
imprimir Solíamos de Razones de Cambio 
    D                A                C               G

e|------2----------------0----------------0----------------3-------------
B|------------3----------------2----------------1----------------3-------
G|----2-----2---2------2-----2---2------0-----0---0------0-----0---0-----
D|--0--------------------------------------------------------------------
A|-------------------0----------------3----------------------------------
E|-----------------------------------------------------3-----------------


Al mismo tiempo el bajo hace esto 

    
G|---------------------------------------------------|
D|---------------------------------------------------|
A|--3/5~--5h7--0~---0-2-3-----3-----------3----------|
E|------------------------------3----5---------------|


D             A
Solíamos pasar las tardes 
 C                 G
Imaginando siempre algo mas 
D             A
Buscando la manera de 
   C         
Frenar el tiempo 
      G
Cuando estabamos solos 
D             
Y escuchar tu voz 
    A   
Era mi canción 
C                     G 
Tus sueños eran parte de los míos 
D           A
Y hoy suelo recordar 
    C           G
Cuando estoy tan solo
D               A
Dejando que  el tiempo 
    C             G
Se apodere de  mi mente
D        A        C               
Y el sonido del silencio
G 
Ocupe  tu lugar 


(RASGADO)
D  Dsus2  D


D                 A               C              G
Pero hoy no puedo olvidar
D        A
Aquellos días
C                G 
Que nos hicieron soñar
D         A        C 
Y me resulta tan difícil
G                D            A             C              G      
Tener que comprender que eres parte 
    D   Dsus2  D
Del ayer 


D       A            Bm
Será tu luz, será tu voz
              G                D      
La que se escucha en el silencio
         A           Bm            G 
O es que soy prisionero de tu tiempo 
D       A            Bm
Será tu luz, será tu voz
              G                 D 
La que se escucha en el silencio 
         A         Bm             G
O es que soy prisionero del recuerdo 


SOLO 1
e|-------------------------------------------------------------|
B|-7~---7-8-7-------10----------7~---7-8-7---------------------|
G|-------------9-7-------^7-----------------9-^7--^5--5/7~-----|




Y hoy te miro diferente 
No como antes yo te vi 
Solo existes en mi mente 
Y nada es igual 
Y lo que fue es lo que extraño mas 
Lo que me cuesta, 
Lo que me duele olvidar 

Será... 


=============================================
bueno ojala les cuadre, saludos a todos los chapines 
que vean esto..............
Este fichero es trabajo propio de su transcriptor y representa su interpretación personal de la canción. El material contenido en esta página es para exclusivo uso privado, por lo que se prohibe su reproducción o retransmisión, así como su uso para fines comerciales.

Fuente: Solíamos: Letra y Acordes (LaCuerda.net)


Otras partituras que podrían interesarte: