acordes.cc 
 letras y acordes > p > pito pérez > jamaica diccionario de acordes 
Jamaica de Pito Pérez
AUTOR: -?-
Pito Pérez Tabs
LaCuerda.net
imprimir Jamaica de Pito Pérez 
Intro “Figura 1”
-----------------------------------------------------|E
-----------------------------------------------------|A
-----------------------------------------------------|D
------------------------------------------9----------|G
---10-------10----10--------10----10--------10-------|b
------9/10-----9-----9/10------9------7--------------|e


-----------------------------------------------------|E
-----------------------------------------------------|A
-----------------------------------------------------|D
----------------------------------------------9------|G
---10-------10----10-------------10----10--------10--|b
------9/10-----9-----9/10---17/9-----9-----7---------|e

/ significa que se tiene que deslizar del traste 
marcado al que sigue marcado.



 
D
Hello

I’ve been walking 
                 A
down the street now  

en jamaica comió

agua de jamaica

D
Hello

I’ve been walking 
                 A
down the street now  

en jamaica comió

agua de jamaica

D
Hello

I’ve been walking 
                 A
down the street now  

en jamaica comió

agua de jamaica

 




D
Hello

I’ve been walking 
                 A
down the street now  

 *distor

D
Hello

I’ve been walking 
                  A,B,D,E,D
down the street now  

 

D
Hello

I’ve been walking 
                 A B,D,E,D
down the street now  

“Figura 1” 

D
Hello

I’ve been walking 
                 A
down the street now  

en jamaica comió

agua de jamaica

D
Hello

I’ve been walking 
                 A
down the street now  

en jamaica comió

agua de jamaica


D
Hello

I’ve been walking 
                 A
down the street now  

en jamaica comió

agua de jamaica

D
Hello

I’ve been walking 
                 A
down the street now  

(en jamaica)

*distor
D
Hello

I’ve been walking 
                 A B,D,E,D
down the street now  

D
Hello

I’ve been walking 
                 A B,D,E,D
down the street now  

D
Hello

I’ve been walking 
                 A
down the street now  

D
Hello

I’ve been walking 
                 A
down the street now  

en jamaica comió

agua de jamaica

D
Hello

I’ve been walking 
                 A
down the street now  

en jamaica comió

agua de jamaica

D
Hello

I’ve been walking 
                 A
down the street now  

en jamaica.


Dudas o comentarios  a: oasisamuel@hotmail.com
Este fichero es trabajo propio de su transcriptor y representa su interpretación personal de la canción. El material contenido en esta página es para exclusivo uso privado, por lo que se prohibe su reproducción o retransmisión, así como su uso para fines comerciales.

Fuente: Jamaica: Letra y Acordes (LaCuerda.net)


Otras partituras que podrían interesarte: