acordes.cc 
 letras y acordes > d > david fernández > es que tú diccionario de acordes 
Es que tú de David fernández
AUTOR: -?-
David fernández Tabs
LaCuerda.net
imprimir Es que tú de David fernández 
                                Acordes

                             1. E       3. F#m

                             2. C#m7    4. B7


NOTA: Los números señalan el # de traste en el que van los dedos


INTRO

E---12-----------11---------------7---11--12--11--16-----------------
B----9---------------9----9---9-----------------------14----------14-
G----9-------9------------9-------------------------------14--16-----
D--------------------------------------------------------------------
A---------------------------------------------------------12--14-----
E----0---------------------------------------------------------------

E----------------12--16--14---
B---16--17--------------------
G-----------14----------------
D-----------------------------
A-----------------------------
E-----------------------------



  1
Desde que te conocí
    2
Descubrí lo que es amar
     3
y también descubrí
4
que tú eras para mí

  1
Desde que te conocí


NOTA: requinto después de la frase desde que te conocí


E------------------------------------------------------
B-----------------------16-----------------------------
G--12--13--15--13--12----------------------------------
D------------------------------------------------------
A------------------------------------------------------
E------------------------------------------------------


2
en tu mirada yo vi
      3
la belleza de tu amor
  4                           1
conocí la realidad junto con la sinceridad
    2
me di cuenta que el amor
       3               4
a tu lado si se llama amor


Acordes

                             1. E       3. F#m

                             2. C#m7    4. B7



[coro]           NOTA: Se repite el coro con los mismos acordes

         1
Y esque tú
      2
Solo tú
     3                 4           1
Me conoces mas que a nadie y eres tú
      2
Solo tú
   3            4           1
La rosa que faltaba en mi jardín
2
Y así
      3            4
Dar color con tu amor
     1
Solo tú


HALF

E---12----------11---------------7---11--12--11--16------------------
B----9---------------9----9---9-----------------------14----------14-
G----9-------9------------9-------------------------------14--16-----
D--------------------------------------------------------------------
A---------------------------------------------------------12--14-----
E----0---------------------------------------------------------------

E----------------12--16--14---
B---16--17--------------------
G-----------14----------------
D-----------------------------
A-----------------------------
E-----------------------------

1
Ahora yo se
      2
Que nunca te dejare
         3
Ya que dios me envió
     4                       1
La parte que falto a mi corazón
       2
Y conocí así el amor
      3                             4
Me di cuenta que sin ti no puedo vivir



NOTA: Se repite dos veces el coro



(coro 2)


                     1
               solo tu
                     2
(GUITAR 1)     Solo tu
                        3
               y esque tú
                4             1
               eres todo mi amor



(GUITAR 2)



NOTA: Igual que en la intro y half (guitar 2)



E---12----------11---------------7---11--12--11--16------------------
B----9---------------9----9---9-----------------------14----------14-
G----9-------9------------9-------------------------------14--16-----
D--------------------------------------------------------------------
A---------------------------------------------------------12--14-----
E----0---------------------------------------------------------------



E----------------12--16--14---
B---16--17--------------------
G-----------14----------------
D-----------------------------
A-----------------------------
E-----------------------------




(GUITAR 3)


END

E--16--17--17--17--16--16--14--12--11-11/12------------------------
B------------------------------------------------------------------
G------------------------------------------------------------------
D------------------------------------------------------------------
A------------------------------------------------------------------
E--------------------------------------0---------------------------



(GUITAR 2 END 11/12)
Este fichero es trabajo propio de su transcriptor y representa su interpretación personal de la canción. El material contenido en esta página es para exclusivo uso privado, por lo que se prohibe su reproducción o retransmisión, así como su uso para fines comerciales.

Fuente: Es que tú: Letra y Acordes (LaCuerda.net)


Otras partituras que podrían interesarte: