acordes.cc 
 letras y acordes > d > desorden p鷅lico > skapate diccionario de acordes · afinador online · acordes guitarra
Skapate de Desorden P鷅lico
AUTOR: -?-
Desorden P鷅lico Tabs
LaCuerda.net
imprimir Skapate de Desorden P鷅lico 
Q mas?... esta cancion es buenisima y muy facil...
aqui les va...

Cualquier comentario q tengan mandenme un email a:
alecool_26@hotmail.com
...Gracias


DESORDEN PUBLICO
SKAPATE

--------------------------------------------------------------------------
CADA ACORDE SE TOCA 4 VECES CADA UNO...
Y DESPUES D CADA ACORDE SIGUE
--------------------------------------------------------------------------

  |C.|        |Am|        |F|         |G.|
-------     -------     -------     -------
---8---     ---5---     ---1---     ---3---
---9---     ---5---     ---2---     ---4---
---10-- x4  ---7--- x4  ---3--- x4  ---5--- x4
---10--     ---7---     ---3---     ---5---
---8---     ---5---     ---1---     ---3---

  C                  Am
Estando enamorado con el coraz贸n
     F                        G
En lo 煤nico que piensas es en hacer el amor
  C               Am
Y cuando enamorado hagas el amor
     F                       G
No te olvides, por favor, de ponerte tu cond贸n

**** Tocar los 4 acordes otravez 2 veces...**

Coro:

  C
Ska, ska, ska
  Am
Sk谩pate conmigo
  F
Se te olvid贸 usar
  G
el preservativo       [x2]


**** Tocar los 4 acordes otravez 2 veces...**

C                  Am
No me reclames, no me reproches
      F                   G
Que no me puse el cond贸n aquella noche
     C                  Am
Pronto nos casaremos, sin casa ni dinero
      F
Pero eso nada importa
            G
Lo importante es que te quiero

**Aqui la cancion no tiene guitarra**

Y cuando no tengamos ni para la comida

Nos daremos cuenta de cuan dura est谩 la vida (x2)

******
Solo
******

Coro:

  C
Ska, ska, ska
  Am
Sk谩pate conmigo
  F
Se te olvid贸 usar
  G
el preservativo       [x2]

**** Tocar los 4 acordes otravez 2 veces...****

**** En este verso cambian los acordes pero el ritmo es igual****

**ACORDES**

  |C.|        |D.|        |E.|
-------     -------     -------
---8---     ---7---     ---9---
---9---     ---7---     ---9---
---10-- x8  ---7--- x4  ---9--- x4
---10--     ---5---     ---7---
---8---     -------     -------

Y al pasar los a帽os, cansados de vernos
Con deudas y sin trabajo nos reclamaremos
Que yo era un vagabundo sin ninguna ocupaci贸n
Y que tu no abortaste 'y que' por tu religi贸n

No quieres ser mi esposa, ni quiero ser tu esposo

Vamos a un tribunal, solicitamos el divorcio (x2)

No te olvides por favor
                         *|C|
De ponerte tu cond贸n!

---------------------------------------------------------------------------
**LA CANCION TERMINA EN C**
---------------------------------------------------------------------------

Y ahi la tienen... mandenme un email por cualquier problema..

Gracias,
Alejandro
Este fichero es trabajo propio de su transcriptor y representa su interpretaci髇 personal de la canci髇. El material contenido en esta p醙ina es para exclusivo uso privado, por lo que se prohibe su reproducci髇 o retransmisi髇, as como su uso para fines comerciales.

Fuente: Skapate: Acordes de Guitarra (LaCuerda.net)


Otras partituras que podr韆n interesarte: