acordes.cc 
 letras y acordes > r > los rodriguez > copa rota diccionario de acordes · afinador online · acordes guitarra
Copa Rota de los Rodriguez
AUTOR: Benito de Jes煤s
los Rodriguez Tabs
LaCuerda.net
imprimir Copa Rota de los Rodriguez 
    B           Em
aturdido y abrumado
 
por la duda de los celos
                                              B
se ve triste en la cantina un bohemio ya sin fe
        
con los nervios destrozados

y llorando sin remedio
                                                Em
como un loco atromentado por la ingrata que se fue

se ve siempre acompa帽ado

por el mejor de los amigos
                                              B
que le acompa帽a y le dice ya est谩 bueno de licor
                     
nada remedia con llanto
                  
nada remedia con vino
                                           B
al contrario le recuerda mucho m谩s su coraz贸n
                   D
una noche como un loco
                   G
mordi贸 la copa de vino
                        B                     Em
y le hizo un cortante filo que su boca destroz贸
                    Am
y la sangre que brotaba
                     Em
confundiose con el vino
                       F#                   B
y en la cantina este grito a todos estremeci贸.


        Am 
no te apures compa帽ero
                   Em
si medestrozo la boca
                        B 
no te apures que yo quiero
                       Em
con el filo de este copa
                         B                      Em
borrar la huella de un beso traicionero que me dio


Am
mozo 
                  Em
sirveme la copa rota
                 B                         Em
sirveme que destroza tanta fiebre de obsesi贸n
mozo

sirveme en la copa rota

quiero sangrar gota a gota el veneno de tu amor.



Para que suene bien con las notas, se tienen que hacer punteadas de la 
siguiente forma:
con la nota puesta en "Em":

----------0-----0-----0-----0--|----0-----0-----0------------------------E
----------0-----0-----0-----0--|----0-----0-----0------------------------B
----------0-----0-----0-----0--|----0-----0-----0------------------------G
-------------------------------|-----------------------------------------D
-------------------2-----------|-------------2---------------------------A
------0------3-----------0-----|-0-----3-----------0---------------------E

El golpe de la sexta cuerda en el tercer traste se hace con el dedo me帽ique.
Para la nota Am es lo mismo, pero las cuerdas A y E son ahora D y A.
Para la nota B:

----------2-----2-----2-----2-----2-----2-----2-----|-----------E
----------4-----4-----4-----4-----4-----4-----4-----|-----------B
----------4-----4-----4-----4-----4-----4-----4-----|-----------G
-------------------2-----------------------------2--|-----------D
-------------2-----------------2-----------2--------|-----------A
------2------------------2-----------2--------------|-----------E


espero que con estas explicaciones podreis tocarlas sin problemas, 
sin encontrais algunas notas que suenen mejor avisadme por favor.

Un saludo desde las Islas Canarias.
Este fichero es trabajo propio de su transcriptor y representa su interpretaci髇 personal de la canci髇. El material contenido en esta p醙ina es para exclusivo uso privado, por lo que se prohibe su reproducci髇 o retransmisi髇, as como su uso para fines comerciales.

Fuente: Copa Rota: Acordes de Guitarra (LaCuerda.net)


Otras partituras que podr韆n interesarte: