acordes.cc 
 letras y acordes > c > la castañeda > zenit diccionario de acordes · afinador online · acordes guitarra
Zenit de la Castañeda
AUTOR: -?-
la Castañeda Tabs
LaCuerda.net
imprimir Zenit de la Castañeda 
La canción sale mas chida con dos guitarras, una que haga  el intro y los solos
La guitarra 1 toca el intro en las estrofas y en el coro puede acompañar a la 2


 INTRO: únicamente GUITARRA 1. Se repite al llegar al final 

                    E E                 E  E                      A  A          
e |-----------------------------------------------------------------------------
B |-----------------------------------------------------------------------------
G |------------1--1-------------1--1----------------2--2---------------2--2-----
D |------------2--2-------------2--2----------------2--2---------------2--2----2
A |--0--2/4-----------0--2/4--------------0--2/4-------------0--2/4-------------
E |-----------------------------------------------------------------------------

 Despues de dos veces entra la vos y el acompañamiento de la segunda guitarra, 


E                                                         A
Crei cuando dijeron que la Luna se dormia cuando salía el Sol 
E                                                             A
Creí cuando dijeron que el diablo se escondia husmeando en las esquinas de la h
E                                                                  A
Crei ademas porque dijeron las maestras miopes que el Sol no se veia de frente 
E                                                        A
Y yo me crei cuando dijeron que la vida no existia en la muerte
 

CORO:
A       B                  C#m
Noo , no quiero ser una sombra en el suelo
   E                   A                                B                       
Quiero verme reflejado transparente en los espacios y los cielos, a la orilla de
E                                              A                             B
Colgado como cuadro en las paredes de tu vientre, perdido en tus pasisajes 
F#m      G#m       A
Ahhh    Ahhh    Ahhh


E                                                         A
Crei cuando dijeron que otros mundos no vivian y todo era lo que ves
E                                            A
Pense que tu sonrisa era inagotable como el agua , hasta que casi se fue
E                                                    A
Queria siempre mas, siempre lo siguiente y lo que tuve lo olvide
E                                                   A                           
Crei que lo que amaba era en si tu carne, pero descrubi tu ser


CORO:
B                        C#m
No quiero ser una sombra en el suelo
   E                      A                                B                    
Quiero verme reflejado transparente en los espacios y los cielos a la orilla de 
E                                              A                              B
Colgado como cuadro en las paredes de tu vientre,  vagando en tus rodillas 
F#m      G#m       A
Ahhh    Ahhh    Ahhh
F#m      G#m       A
Ahhh    Ahhh    AhhhAhhhAhhuuh


SOLO: Unicamente una guitarra la otra hace el acompañamiento en E y A como en l

Riff 1
Se repite 3 veces, se acentúa en *
 Los acordes E y A se intercalan al inicio
E  |------------------------------------|
B |--9--9--9--*9--10--12------------|
G |------------------------------------| 
D |------------------------------------|
A |------------------------------------|
E |------------------------------------ |

y en la 4ta y ultima va así:
E  |------------------------------------|
B |--9--9--*9-------------------------|
G |------------------------------------| 
D |------------------------------------|
A |------------------------------------|
E |------------------------------------ |

Riff 2 
      E                      A                                                  
e |--------------------------------------------------------|--------------------
B |------7--*9--9--12--9--10--9-----10--9------10--9--|------7--*9--9--12--9--*1
G |--/9-----------------------------9----------9--------- -|--/9----------------
D |--------------------------------------------------------|--------------------
A |--------------------------------------------------------|--------------------
E |--------------------------------------------------------|--------------------

          E                                  A
E  |---------------------------*12------------|
B |--*12--9--12--9--*10--*14----------- |
G |---------------------------*14------------|
D |---------------------------*14------------|
A |---------------------------*12------------|
E |------------------------------------------|

CORO:

A       B                  C#m
Noo , no quiero ser una sombra en el suelo
   E                      A                                B                    
Quiero verme reflejado transparente en los espacios y los cielos a la orilla de 
E                                              A                              B 
Colgado como cuadro en las paredes de tu vientre vagando en tus rodillas, crecie
E                              A            B                                   
Llegar al Cenit pasional, Y estallar el universo en sangre y energía
E                           A        B                                        C#
Soy el Cenit pasional, estallando entre tus piernas, creciendo por tus labios 
E                                                 A              B           C#m
Llegando al punto maximo de comunión, de comunion, yeeeh!,  
E               A            B          C#m
yeeeeh!, yeeeah, yeejeeah, yeeeah, 
E                  A               B               C#m
yejejeah, yejejeaah!, yejejeahaauuh, uuhjuuh 
E           A        B   
uuhh!, uuhh!  Est      allando entre tus piernas.
F#m      G#m       A
Ahhh    Ahhh    Ahhh

E                 A
oohh!     oheehah
E              A
yehjeieh yeehjeah
E            A
yeihjei  eeehhehe
E           A
yeeah    uhhh


Acordes: 

E: 000220
A: 022200
B: 24442X
C#m: 45664X
F#m: 222442
G#m: 444664

****************************************************** 

Dedicado a mi estrella y mi cosmos: sara (9/15/84) hada
de luz continua e infinita, en intervalos de tiempo 
desconocidos, pero no imposibles, desde tu dimensión:
Sigue siendo esa eterna flama de amor incondicional
que eres para mi. Te amo no lo olvides. atte: tu aliado, tu novio y tu fan: ceni
Este fichero es trabajo propio de su transcriptor y representa su interpretación personal de la canción. El material contenido en esta página es para exclusivo uso privado, por lo que se prohibe su reproducción o retransmisión, así como su uso para fines comerciales.

Fuente: Zenit: Acordes de Guitarra (LaCuerda.net)


Otras partituras que podrían interesarte: