acordes.cc 
 letras y acordes > c > charly garcía > yendo de la cama al living diccionario de acordes 
Yendo de la cama al living de Charly García
AUTOR: Charly García
Charly García Tabs
LaCuerda.net
imprimir Yendo de la cama al living de Charly García 
Nota - 11 de junio del 2011:
Gracias por calificar la tablatura, le hice unos pequeños
cambios a los solos del Concierto Subacuático (pull-offs y
uno que otro semitono que anote mal), la parte del tarareo
(en donde suena más el bajo) y al solo 3 (los intervalos
estaban más grandes por un semitono).

Creo que es todo, gracias y sigan calificando.
-----------------------------------------------------------

Como ya estan los acordes del tema, solo pongo la tablatura
de lo que hace la guitarra, tomando como base el video
original (http://bit.ly/h4le7R) y la versión del Concierto
Subacuático.

-----------------------------------------------------------

Guitarra original: Yendo de la cama al living

-----------------------------------------------------------

(...no hay señales de algo que viva en mi)

Solo 1 (con 4 variaciones)

"Negro" López
E--------------------------------------------------------------/
B--------------------------------------------------------------/
G-----------------------10-------------------------------------/
D--10^^^(11)----10^(11)----11p10p8----8~-----------------------/
A----------------------------------10--------------------------/
E--------------------------------------------------------------/

Kiuge Hayashida
E--------------------------------------------------------------/
B----------------------10--------------------------------------/
G---9^^^(10)-----9^(10)----10p9p7-9---8~-----------------------/
D-----------------------------------9--------------------------/
A--------------------------------------------------------------/
E--------------------------------------------------------------/

Charly (Video del 82)
E-----------------------13-------------------------------------/
B--13^^^(15)----13^(15)----15-12-15----11~---------------------/
G-----------------------------------12-------------------------/
D--------------------------------------------------------------/
A--------------------------------------------------------------/
E--------------------------------------------------------------/

E-----------------------13-------------19^(19.5)---------------/
B--13^^^(15)----13^(15)----15-12-15----------------------------/
G----------------------------------(15)------------------------/
D--------------------------------------------------------------/
A--------------------------------------------------------------/
E--------------------------------------------------------------/

-----------------------------------------------------------

Solo 2 (Tarareo)
Esta parte es especialmente difícil de sacar correctamente porque
varía por un semitono y Charly no siempre la toca de la misma
forma (por ejemplo en el Unplugged el Cello lo toca muy
diferente al original) y suele variarlo al tocar en vivo.

Pero está a la perfección respecto a como lo toca en el video.

E---------------------------------------------/
B--------3---------------------.--------------/
G--4-5-6---3-.-.-.-------------5--------------/
D------------5-5-5---5-3-5-6-7---3-4-5--------/
A--------------------------------------3~-----/
E---------------------------------------------/

E------------------3--------------1---------3----/
B--------3-----------5~-----1-2-3-.---1-2-3-.----/
G--4-5-6---4-.-.-.-------------------------------/
D------------5-5-5-------------------------------/
A------------------------------------------------/
E------------------------------------------------/

E--------3-----------------------------/
B--1-2-3-.-3/5-------------------------/
G--------------3/5---------------------/
D------------------3/5-3/5-------------/
A--------------------------5/7---------/
E------------------------------5/7-----/

E--------------------------------------------------------------/
B--------------------------------------------------------------/
G-----------.---------------.----------------------------------/
D---------8-8-----------10-10----------------------------------/
A---------------------.--------------.-12-11^(12)~~~-----------/
E--/10-10------10-10-10-------10-10-10-------------------------/

-----------------------------------------------------------

Solo 3
Esto pueden tocarlo con el índice y el anular, pero para tener
más control del vibrato pueden usar el pulgar para el mute y

E-------10-10--6~-------12-12--8~--------15-15--12~------------/
B-----x---------------x----------------x-----------------------/
G----x---------------x----------------x----|Se repite hasta|---/
D---x---------------x----------------x-----|  el fade out  |---/
A--x---------------x----------------x--------------------------/
E-x---------------x----------------x---------------------------/


Si ponen atención, en el video al empezar el fade out una
segunda guitarra hace una improvisación.

Esto es lo que alcanzo a oír:

E------13----------------------------------------/
B--/15----15-14-13-------------------------------/
G------------------15~/0-------------------------/
D-------------------------15-14-13---------------/
A----------------------------------15~/0---------/
E------------------------------------------------/

Y en el CD la guitarra imita el teclado:

E-----------------------------------------------/
B-----------------------------------------------/
G--5-5-5-5--5--4--4--5-5-5-5-5-5-5-5-5-5-5--4---/
D--5-5-5-5--5--4--4--5-5-5-5-5-5-5-5-5-5-5--5---/
A--3-3-3-3--3--2--2--3-3-3-3-3-3-3-3-3-3-3--6---/
E-----------------------------------------------/

Dudas, sugerencias y comentarios, al correo.

SNM
Este fichero es trabajo propio de su transcriptor y representa su interpretación personal de la canción. El material contenido en esta página es para exclusivo uso privado, por lo que se prohibe su reproducción o retransmisión, así como su uso para fines comerciales.

Fuente: Yendo de la cama al living: Letra y Acordes (LaCuerda.net)


Otras partituras que podrían interesarte: