acordes.cc 
 letras y acordes > 0-9 > la 25 > ya todo pasó diccionario de acordes 
Ya todo pasó de La 25
AUTOR: Junior
La 25 Tabs
LaCuerda.net
imprimir Ya todo pasó de La 25 
Intro: E5 - B5

E5
Estoy parado aquí lo dijistes bien


no es modo de seguir


compartimos tan buenos momentos


pero hoy estoy así


        A5    E5
como me gusta asi


          B5                      A5
lo siento nena pero te entendi muy mal


                    B5          E5
mi modo es rock and roll y me gusta




Solo

e|--------12-15b-12---------------
B|-----12--------12--14-----------
G|-14b---------------14-12h13-----
D|----------------------------14--  X2
A|--------------------------------
E|--------------------------------


e|-----------12-------12-----12-----12-----12-----12------12---
B|-----------12-------12-----12-----12-----12-----12------12---
G|-12-14-14b------14b----14b----14b----14b----14b-----14b------
D|-------------------------------------------------------------
A|-------------------------------------------------------------
E|-------------------------------------------------------------


e|-------------12-----------------------12-----12-----12-----12
B|----12-------12--14-12----------------12-----12-----12-----12
G|-14-12b--14b-----14-12b------12b--14b----14b----14b----14b---
D|-------------------------14----------------------------------
A|-------------------------------------------------------------
E|-------------------------------------------------------------


e|-----12--------------------------------------------12------12
B|-----12--14-12-----12--15---12--14-12-----12-------12------12
G|-14b-----14-12-----12--14ba-12--14-12-----12---14b-----14b---
D|----------------14---------------------14--------------------
A|-------------------------------------------------------------
E|-------------------------------------------------------------


e|----12--15-14-12-----------------
B|----12--15-14-12---14-12---------
G|14b----------------14-12h13------
D|----------------------------14v--
A|---------------------------------
E|---------------------------------


e|--------12-15b-12---------------
B|-----12--------12--14-----------
G|-14b---------------14-12h13-----
D|----------------------------14--  X2
A|--------------------------------
E|--------------------------------


e|-----------12------12-12-----12-12-----12-12----12-12------12-12
B|-----------12------12-12-----12-12-----12-12----12-12------12-12
G|-12-14-14b-----14b-------14b-------14b-------14b-------14b------
D|----------------------------------------------------------------
A|----------------------------------------------------------------
E|----------------------------------------------------------------


e|-12--15-14-12----12--------------------
B|-12--15-14-12-12-12-----14--12---------
G|---------------------12-14--12b----12b-
D|--------------------------------14-----
A|---------------------------------------
E|---------------------------------------

e|-----12--12------12-12-----12-12-----12-12----12-------
B|-----12--12------12-12-----12-12-----12-12----12-------
G|-14b---------14b-------14b-------14b-------14b---------
D|-------------------------------------------------------
A|-------------------------------------------------------
E|-------------------------------------------------------

e|--------------------------------------------------
B|-------14-12---------15------------12-------------
G|14-12--14-12--14-12--14ba-12-14----12b--14-12-13--
D|--------------------------------14----------------
A|--------------------------------------------------
E|--------------------------------------------------


e|-----12--12------12-12-----12--
B|-----12--12------12-12-----12--
G|-14b---------14b-------14b-----
D|-------------------------------
A|-------------------------------
E|-------------------------------


e|----12-15--17ba-15v--------------------------
B|-12-------------------14--14p12-----12-------
G|----------------------14--14p12-----12b------
D|---------------------------------14------14v-
A|---------------------------------------------
E|---------------------------------------------
Este fichero es trabajo propio de su transcriptor y representa su interpretación personal de la canción. El material contenido en esta página es para exclusivo uso privado, por lo que se prohibe su reproducción o retransmisión, así como su uso para fines comerciales.

Fuente: Ya todo pasó: Letra y Acordes (LaCuerda.net)


Otras partituras que podrían interesarte: