acordes.cc 
 letras y acordes > g > gustavo cerati > vivo diccionario de acordes 
Vivo de Gustavo Cerati
AUTOR: Gustavo Cerati
Gustavo Cerati Tabs
LaCuerda.net
imprimir Vivo de Gustavo Cerati 
Esta es mi version de Vivo

Acordes:
  Em  D   Dx  Cx   A   C   G
1-7---5---10---8---0---0---3
2-8---7---10---8---2---1---3
3-9---7---11---9---2---0---0
4-9---7---12---10--2---2---0
5-7---5---12---10--0---3---2
6-x---x---10---8---x---x---3

Intro:

1-10-8-7-----------7
2-------8------8-10-
3--------9----------
4-------------------
5-------------------
6-------------------

Versos
Em, D, Dx, C

Precoro:
A                 
  Me pondre el uniforme
     C
De piel humana
        A
No esperaba
               C
Tanto resplandor

Coro:
    G         
El fin de amar
       A         G       A   
es sentirse más vivo
    G     
El fin del mar
    A            G       A
sentirse igual vivo


riff:

4-5~~4~~3~~2~~-------5~~4~~3~~2~~---
5-------------1~~----------------3~~
6-----------------------------------

Intro
Precoro(con figura de intro)
Coro
Acaba con acordes de versos
Este fichero es trabajo propio de su transcriptor y representa su interpretación personal de la canción. El material contenido en esta página es para exclusivo uso privado, por lo que se prohibe su reproducción o retransmisión, así como su uso para fines comerciales.

Fuente: Vivo: Letra y Acordes (LaCuerda.net)


Otras partituras que podrían interesarte: