acordes.cc 
 letras y acordes > s > sin bandera > ves diccionario de acordes 
Ves de Sin Bandera
AUTOR: Lionel García, Noel Schajris
Sin Bandera Tabs
LaCuerda.net
imprimir Ves de Sin Bandera 
Bueno esta cancion la saque de esta forma
es una forma que suena muy bien y aqui se las dejare
de donde empieza la letra hacia el primer coro
es un arpegeo

EL INTRO DEL PIANO ES ASI

E |---------------------------------------------------------------------|
B |-----9-----9---------9------9---------9------9--------9------9-------|
G |--------11--------------11---------------11--------------11----------|
D |-----------------9---------------------------------------------------|
A |--7-------------------------------7----------------6-----------------|
E |--0------------------------------------------------------------------|

E |-----4-----4-------4-------4-----------------------------------------|
B |--------7------5-------4-----------4-------4-------4---5-------------|
G |-------------------------------6-------4-------6---------------------|
D |---------------------------------------------------------------------|
A |--4------------------------------------------------------------------|
E |---------------------------------------------------------------------|

E |-------5-------5-------5-------5---------------------------2---------|
B |-----------4-------2-------0--------2------------------2-------------|
G |----------------------------------------2----------2-----------------|
D |-------------------------------------------4----4--------------------|
A |----------------------------------------------4----------------------|
E |---2--------------------------------2--------------------------------|

E |---------------0--------------------------------2--------------------|
B |---1---------------1-------------------4--------4--------------------|
G |-------2---------------2---------------2-----2-----------------------|
D |-----------2-----------------------4---------------------------------|
A |---0----------------------0-----2------------------------------------|
E |---------------------------------------------------------------------|



LA CANCION EMPIEZA ASI

 E                                          C#m
Ves que aún te puedo tocar con un dedo de amor
E |------------------------------------|
B |--0-----0-0-----0--5-----5-5-----5--|
G |----1-------1--------6-------6------|
D |------2-------1--------6-------6----|
A |-------------------4-------4--------|
E |--0-------0-------------------------|

                                          F#m
Puedo hacerte temblar cuando escuchas mi voz
                                  Am                   B
No esta todo perdido si quema mi fuego tu piel cuando digo tu nombre
E |------------------------------------|
B |--2-----2-2-----2-1-----1-4-----4---|
G |----2-------2-------2-------4-------|
D |------4-------4-------2-------4-----|
A |------------------0-------2---------|
E |--2-------2-------------------------|

 E                                    C#m
Se que no todo acabo el amor sigue aquí
E |------------------------------------|
B |--0-----0-0-----0--5-----5-5-----5--|
G |----1-------1--------6-------6------|
D |------2-------1--------6-------6----|
A |-------------------4-------4--------|
E |--0-------0-------------------------|

                              F#m
esto no termino tu me miras así
                                    Am                 B
como ayer tiene tanto poder lo que siento o es que lo nuestro es eterno
E |------------------------------------|
B |--2-----2-2-----2-1-----1-4-----4---|
G |----2-------2-------2-------4-------|
D |------4-------4-------2-------4-----|
A |------------------0-------2---------|
E |--2-------2-------------------------|

C#m           A   F#m       B  A# A
Yo te puedo amar dejate llevar
E |-------------------------------------------------------|
B |--5-----5-5-----5-2-----2-2-----2-2-----2-4-----4-4-3--|
G |----6-------6-------2-------2-------2-------4----------|
D |------6-------6-------2-------2-------2-------4--------|
A |--4-------4-------0-------0-------0-------2-------2-1--|
E |-------------------------------------------------------|

 A
Ves que mi amor es tu amor
                      B
que tu ausencia es dolor
                                           G#m
que es amargo el sabor si no estas, si te vas
        C#m  B       A
y no regresas nunca más

A
Que aún te puedo llenar
                    B
con mi piel en tu piel
                                      G#m
de pasión aún se puede salvar la ilusión
        C#m    B    A B              E
para volver a respirar en tu corazón


 E                                     C#m
Ves que me acuerdo de cada detalle de ti
                                    F#m
que es mi unico sueño el hacerte feliz

que no importa lo que haya pasado
      Am                      B
no importa el dolor si hoy estas a mi lado.

C#m           A
Yo te puedo amar
F#m        B  A# A
dejate llevar

 A
Ves que mi amor es tu amor
                      B
que tu ausencia es dolor
                                           G#m
que es amargo el sabor si no estas, si te vas
        C#m  B       A
y no regresas nunca más

A
Que aún te puedo llenar
                    B
con mi piel en tu piel
                                      G#m
de pasión aún se puede salvar la ilusión
        C#m    B    A B           E
para volver a respirar en tu corazón
Este fichero es trabajo propio de su transcriptor y representa su interpretación personal de la canción. El material contenido en esta página es para exclusivo uso privado, por lo que se prohibe su reproducción o retransmisión, así como su uso para fines comerciales.

Fuente: Ves: Letra y Acordes (LaCuerda.net)


Otras partituras que podrían interesarte: