acordes.cc 
 letras y acordes > d > dos minutos > vampira diccionario de acordes 
Vampira de Dos Minutos
AUTOR: Mosca
Dos Minutos Tabs
LaCuerda.net
imprimir Vampira de Dos Minutos 
Bueno aca mando una corrección de los 2 tablaturas anteriores,tiene unas correcc
estoy 100% seguro q es asi, xq lo vi tocar al tema en vivo, y sonaba de esta man

Intro:x2(con palm mute)(D5-E5-A5-F#5)(D5-E5-A5)
todos los acordes son en 5tas

    D       E         A        F#         D      E         A
Mi corazón late, a toda velocidad porque hoy te paso a buscar
    D       E         A        F#         D      E
Iremos a cenar, y despues al cine, a ver una de dracula

(X2) D-E-A-F#  D-E-A

En esta estrofa repite los mismos acordes pero mas rapido

Mi corazón late, a toda velocidad porque hoy te paso a buscar

Iremos a cenar, y despues al cine, a ver una de dracula

Te tengo que decir, todo lo que siento yo por ti, mi amor!

Me mordistes la yugular y ahora soy inmortal!

------------------o------------------
D                  E
Mi novia es un vampiro
    A           F#
hasta la eternidad
D                  E           A
Mi novia es un vampiro y nada mas

Aca hace esto 2 veces
1-------------------------------------------------
2-------------------------------------------------
3-------------------------------------------------
4-7777-9999-11-11-11-11---14-13-11----------------
5-5555-7777-9--9--9--9----12-11-9-----------------
6-------------------------------------------------

Despues
1-------------------------------------------------
2-------------------------------------------------
3-------------------------------------------------
4-7777-9999-11-11-11-11-10-11-99999---------------
5-5555-7777-9--9--9--9--8--9--77777---------------
6-------------------------------------------------

Repite la letra y los acordes otra vez, el tema termina en A5
escuchenlo para sacar los tiempos y la velocidad

Bueno esta es mi 1er tablatura q subo, espero q la entiendan =)
y q les sirva, cualkier duda, correccion, puteada, manden un mail
Un saludo a toda la gente de Rio Gallegos, y aguante el punk patagonico!!
Este fichero es trabajo propio de su transcriptor y representa su interpretación personal de la canción. El material contenido en esta página es para exclusivo uso privado, por lo que se prohibe su reproducción o retransmisión, así como su uso para fines comerciales.

Fuente: Vampira: Letra y Acordes (LaCuerda.net)


Otras partituras que podrían interesarte: