acordes.cc 
 letras y acordes > c > callejeros > una nueva noche fria diccionario de acordes 
Una nueva noche fria de Callejeros
AUTOR: Pato
Callejeros Tabs
LaCuerda.net
imprimir Una nueva noche fria de Callejeros 
Intro


E|-------------------7--------------------------------7-----------------10---|
B|--7---7---8---10-------10---8-8-7------7---8---10-------10----8-7-8----7---|
G|--7-------------------------7-7-7-----------------------------7-7-7----7---|
D|--0-0---0---0----0---0----0-----0----0---0---0----0---0----0---------------|
A|---------------------------------------------------------------------------|
E|---------------------------------------------------------------------------|


E|-------3------5--3-------5-3--------5-3--------|
B|---------3-----------3--------3---------3----7-|
G|-----4------4-----------4--------4-----------7-|
D|--5------------------------------------------0-|
A|-----------------------------------------------|
E|-----------------------------------------------|


E|-------5------------3--------5--5--3|
B|---------5------------3------7--5--3|
G|-----6------4-----4-----4----7--6--4|
D|--7-------------5------------7--7--5|
A|------------------------------------|
E|------------------------------------|
Este fichero es trabajo propio de su transcriptor y representa su interpretación personal de la canción. El material contenido en esta página es para exclusivo uso privado, por lo que se prohibe su reproducción o retransmisión, así como su uso para fines comerciales.

Fuente: Una nueva noche fria: Letra y Acordes (LaCuerda.net)


Otras partituras que podrían interesarte: