acordes.cc 
 letras y acordes > a > alejandro sanz > una noche diccionario de acordes 
Una noche de Alejandro Sanz
AUTOR: -?-
Alejandro Sanz Tabs
LaCuerda.net
imprimir Una noche de Alejandro Sanz 
Verso:

F#m         Bm
Después de pensar
            G
Después de ver
              A
A mi dolor andar
         F#m       Bm
Sobre el agua del mar
G           A
Tibia claridad
  F#m           Bm        G
que vi por mi calle pasar
                 A
sin saber qué hacer
       F#m       Bm  G
si sentir o pensar
        F#m    Bm
sólo que aun hoy
       F#m      Bm
sigo aun, aun hoy
      G         A
sigo atándome a ti

Riff (se repite durante todo el coro)
E ------------
A -0-4-5-4-0--
D ------------
G ------------
B ------------
E ------------
 
Coro:

      D
Aun hoy
     Bm
MI amor
     G
te doy
A              D 
mi cuerpo con alma
        Bm
se esconde
     G
del SOL
A             D
de noche se escapa
    Bm
aún hoy
    G
te doy
A               D     
mi cuerpo con alma
    Bm
aun hoy
     G     A     F#m
aun hay
 

Verso 2 (igual que el 1)

Qué esconde la noche
Va a guardar
Entre nosotros dos
o sentir o pensar
Se me llenó de luz la noche
es porque yo vi nadar
delfines en tu voz
y sentir sin pensar
solo 
Aun hoy sigo aun
Aun hoy sigo amándote a ti

Riff 

Coro:

Aun hoy, mi amor
Aun hay
Dos cuerpos con alma
Se esconden del sol
De noche se escapan
De noche se dan
Dos cuerpos, dos almas
aun hoy
aun hay
 
Solo:
E -------------------5-5/7---7-------------------------------------------------
A -------------------------5---5/7---7----------------------9------------------
D --11-----------------------------5---5/7--------------7-7-7---7-7------------
G -----11----------------------------------6-6-7-9-9/11-----7------------------
B --------10---12-10----------------------------------------7/8-----10/12-10-10
E -----------9-----------------------------------------------------------------

E -----------------------------------------------------
A -9---------------------------------------------------
D ---7/9-7---------------------------------------------
G ---------6--------------------------11----11---------
B -----------5---10-12-14-14----10-10----10---10/12-12-
E -------------5--9-10-12-12/14------------------------


Verso 3:
        F#m Bm        G
Solo que aun hay sigo a
F#m Bm        G         A
Aún hoy sigo amándote a ti amándote a ti

Riff

Coro:

Aún hoy, mi amor
Aún hay
dos cuerpos con alma
se esconden del sol
De noche se escapan
De noche se dan
los cuerpos, las almas
 
Aún hoy aun hay
Aún hay...
Este fichero es trabajo propio de su transcriptor y representa su interpretación personal de la canción. El material contenido en esta página es para exclusivo uso privado, por lo que se prohibe su reproducción o retransmisión, así como su uso para fines comerciales.

Fuente: Una noche: Letra y Acordes (LaCuerda.net)


Otras partituras que podrían interesarte: