acordes.cc 
 letras y acordes > a > andrés cepeda > una canción diccionario de acordes 
Una Canción de Andrés Cepeda
AUTOR: Andrés Cepeda
Andrés Cepeda Tabs
LaCuerda.net
imprimir Una Canción de Andrés Cepeda 
Pido disculpas a los que no son empíricos como yo, pues encontraran errores tant



E------0-3-5-7-8-10-8-7-5-7-5-5----------0-0-3-3-0-----------
B---1-0--------------------8-7-5-8-5-8-5-1-1-1-1-1-----------
G--2-------------------------------------2-2-2-2-2-----------
D------------------------------------------------------------
A-0----------------------------------------------------------
E------------------------------------------------------------

E-----0------4-7-10----
B----3-3---3-3-6-12----
G---2---2--1-4-7-13----
D--3-----3-3-----------
A-2--------------------
E----------------------

                   Am         Dm
Te regalo una canción,para decirte
40  53 40 53 52 50 64E7          Am
que-ma-ña-na-yo-me-voy, sin despedirme

                   Dm                Am          
Te regalo una canción, que está muy triste
                B7 B7/C       E7
esperando se quedó,    y no viniste

                   Am             Dm  
Te regalo una canción, para que entiendas
40     53   40 53 52 50  64E7           Am 
que el-tiem-po-si-te-cam-bió, mas de la cuenta

                   Dm             Am
Te regalo una canción, con la que digo
                   B7   B7/C     E7
que yo ni siquiera pude, ser tu amigo

                   Am A/C#         Dm 
Te regalo una canción,    que no pediste
Dm              B7  B7/C                  E7
y yo no se para que,   te regalo una canción
                            Am-Am/G-F-E7
si para mi...tu ya no existeeeees
               Am-Am/G-F-E7....Am
...yaaaaa no existeeeees


NOTAS

     654321
Am  :x02210
Dm  :xx0231
E7  :020130
B7  :x21202
B7/C:x3120x
A/C#:x4222x
Am/G:3x2210
F   :133211
Este fichero es trabajo propio de su transcriptor y representa su interpretación personal de la canción. El material contenido en esta página es para exclusivo uso privado, por lo que se prohibe su reproducción o retransmisión, así como su uso para fines comerciales.

Fuente: Una Canción: Letra y Acordes (LaCuerda.net)


Otras partituras que podrían interesarte: