acordes.cc 
 letras y acordes > i > los iracundos > un rincón del corazón diccionario de acordes 
Un Rincón Del Corazón de los Iracundos
AUTOR: -?-
los Iracundos Tabs
LaCuerda.net
imprimir Un Rincón Del Corazón de los Iracundos 
LAS NOTAS DE ESTA CANCION SE EJECUTARAN EN UNA ESCALA SIMPLE DIATONICA
(INTERMEDIAS Y AGUDAS) MAS NO EN TONICAS GRAVES.

UN RINCON DEL CORAZON

se que guardas para mi un rincon del corazon
         DO            SOL            DO       
un rincon del corazon un rincon para soñar
      RE          MI        RE         MI
yo que siempre te pedi que me dieras para mi 
         DO            SOL            DO  
un rincon del corazon un rincon para soñar
      RE          MI        RE         MI
si supieras tu, lo que sufro yo, cuando 
       DO              LAm           
pienso en ti y en tu corazon
  MI                   FA
si supieras que el vivir sin ti mata la ilucion
       DO           LA               MI
que yo me forje que tu seas para mi
       FA       SOL              DO
yo que siempre te pedi que me dieras para mi 
         DO            SOL            DO  
un rincon del corazon un rincon para soñar
      RE          MI        RE         MI
--------10--12-|-------------------|
-10--13--------|--13--13-----------|
---------------|-------------------|
---------------|-------------------|
---------------|-------------------|
---------------|-------------------|

--------10--12-|-------------------|
-10--13--------|--13--13-----------|
---------------|-------------------|
---------------|-------------------|
---------------|-------------------|
---------------|-------------------|



--------10--12-|-------------------|
-10--13--------|--12--12--12-------|
---------------|-------------------|
---------------|-------------------|
---------------|-------------------|
---------------|-------------------|
   

---------------|-------------------|
-10------10----|-10---10-----------|
-----12--------|-------------------|
---------------|-------------------|
---------------|-------------------|
---------------|-------------------|


se que guardas para mi un rincon del corazon
         DO            SOL            DO       
un rincon del corazon un rincon para soñar
      RE          MI        RE         MI
si supieras tu, lo que sufro yo, cuando 
       DO              LAm           
pienso en ti y en tu corazon
  MI                   FA
si supieras que el vivir sin ti mata la ilucion
       DO           LA               MI
que yo me forje que tu seas para mi

cualquier comentario javirojas34@yahoo.com
Este fichero es trabajo propio de su transcriptor y representa su interpretación personal de la canción. El material contenido en esta página es para exclusivo uso privado, por lo que se prohibe su reproducción o retransmisión, así como su uso para fines comerciales.

Fuente: Un Rincón Del Corazón: Letra y Acordes (LaCuerda.net)


Otras partituras que podrían interesarte: