acordes.cc 
 letras y acordes > c > la castañeda > transfusión diccionario de acordes 
Transfusión de la Castañeda
AUTOR: -?-
la Castañeda Tabs
LaCuerda.net
imprimir Transfusión de la Castañeda 
D                            G
EN MEDIO DE TANTA CONTAMINACION
D                                            G
MI SANGRE ESTA PARADA NO QUIERE MAS CIRCULACION
D                            G
LA ULTIMA GOTA DE LUZ SE APAGO
D                                        G7
LOS ANGELES SECOS ME MIRAN DICIENDOME ADIOS

D                             G
ENYECTAME UN POCO DE TU SUSPIRAR
D                                G 
DEL CIELO DE OLVIDO QUE PUEDA CURAR
D                                      G
DE EXESO EN EXESO QUE NO PUEDE CICATRIZAR
D                                        G7
LAS LLAGAS DEL ALMA QUE NUNCA JAMAS CERRARAN

A         G            D  
OOOH ME DUELE DECIR LLEGA LA MUERTE
D                             G
TRANSFUSION PARA ESTE AMOR ENFERMO
D                         G             G7
TRANSFUSION PARA PODER HACERLO UNA VEZ MAS
D                           G            G7
TRANSFUSION PARA MI AMOR ENFERMO DE VERDAD

A        G             D        
OOH ME DUELE DECIR LLEGA LA MUERTE
    A       G           D 
Y ASI SOLO A LOS DOS INFECTA ESTE FIN 
  A         G         D
OUOOOOH  OUOOOOOOOH


               5     6      7
D =   -----|--0---|------|------
      -----|--X---|------|------
      -----|------|------|---X--   LOS DEDOS SE COLOCAN EN LA " X"
      -----|------|------|---X--
      -----|--0---|------|------
      -----|--0---|------|------

               5      6      7
A =   -----|--X---|------|------
      -----|------|------|---X--
      -----|------|------|---X--   LOS DEDOS SE COLOCAN EN LA " X"
      -----|--0---|------|------
      -----|--0---|------|------
      -----|--0---|------|------
  
        2      3      4     5
G =   -----|--X---|------|------
      -----|------|------|---X--
      -----|------|------|---X--   LOS DEDOS SE COLOCAN EN LA " X"
      -----|--0---|------|------
      -----|--0---|------|------
      -----|--0---|------|------



              3       4      5
G7 =  -----|--3---|------|------
      -----|------|------|---X--
      -----|--3---|------|------   LOS DEDOS SE COLOCAN EN LA " X"
      -----|------|--X---|------
      -----|--3---|------|------
      -----|--3---|------|------




CUALQUIER DUDA ESCRIBANME
Este fichero es trabajo propio de su transcriptor y representa su interpretación personal de la canción. El material contenido en esta página es para exclusivo uso privado, por lo que se prohibe su reproducción o retransmisión, así como su uso para fines comerciales.

Fuente: Transfusión: Letra y Acordes (LaCuerda.net)


Otras partituras que podrían interesarte: