acordes.cc 
 letras y acordes > g > guasones > todavia diccionario de acordes 
Todavia de Guasones
AUTOR: Facundo soto
Guasones Tabs
LaCuerda.net
imprimir Todavia de Guasones 
Base = G C G C G Bm Em C


3:03 - 3:06
 G     C
1----8-8-------------
2-8b-----8b-10-8-10-8
3--------------------
4--------------------
5--------------------
6--------------------

3:07 - 3:10
G             C
1-----------------------------
2-----8-------8-------10-8-10-
3-5/7---7-5/7---7-7/9---------
4-----------------------------
5-----------------------------
6-----------------------------

3:10 - 3:15
G             Bm
1---7---7-----7b-----------
2-8---8---8b--8b--10-8-10-8
3--------------------------
4--------------------------
5--------------------------
6--------------------------

3:15 - 3:20
Em            C
1--3----5----7--8b-
2-5--5-6--6-8--8---
3------------------
4------------------
5------------------
6------------------
Este fichero es trabajo propio de su transcriptor y representa su interpretación personal de la canción. El material contenido en esta página es para exclusivo uso privado, por lo que se prohibe su reproducción o retransmisión, así como su uso para fines comerciales.

Fuente: Todavia: Letra y Acordes (LaCuerda.net)


Otras partituras que podrían interesarte: