acordes.cc 
 letras y acordes > b > bersuit vergarabat > tito mariscal diccionario de acordes 
Tito mariscal de Bersuit Vergarabat
AUTOR: Cordera
Bersuit Vergarabat Tabs
LaCuerda.net
imprimir Tito mariscal de Bersuit Vergarabat 
MARISCAL TITO  (CORDERA//CORDERA CESPED)           


* (Solo hasta  el prox. *)

El es el combo
del gran quilombo
nacio para primero ...¡¡y por lejos!!
Pero va al bombo
ni siquiera a la cola, rezagado.
Sus historietas lo agotan,
lo van cercando,
para vivir de la espuma
que da la bruma  espesa del estanque.
                                                          <----------arrastrar l
Cultiva bichos, nichos, tinchos                   entre cuerda 6 y5 hacia arriba
y tirzos demoniacos de pestilentes.             hasta el final del mastil
de esos que odian la gente,
que facilmente odioa,
mas SI  es A otro, mas si ese otro
         *          Riff 1
sos vos...   
Que vijas a la hazaña,
perfectamente, sin omitir ni un detalle;
sos productor de la calle:
puntilloso, obsesivo, previsor, atrevido y valiente.
Sos de jugarte la vida,
un gran actor que no se corre del papel

(Nada)
(simpre derecho a la villa).
                    SOL >a
Y en un rancho 
                    SOL >c
ni te conocen,
y te la venden cortada:
jabon en polvo, o harina barata,
o veneno para rata,
que no te mata.
¡si estas impune!
Comiendo vidrio molido   
!Te hicite inmune¡


Riff 2                                             Riff 2
Tito, deja es aporqueria¡¡¡¡

A5              B5   A5                B5 ]--------> Apoyando un poco l mano der
Ya sin amigos, pero te adoran,
le robaste a la muerte toda su ecencia,
pa´convidala.
Sos un repartidor del dios que amamos,
paseando por san telmo,
con la cruz en el nazo,
soldado raso en la guerra del quenaso
¿que es la fisura?
Es una grieta de hielo.
¿y el tembleque'
Es el camndombe del trueque.
Todo por nada,
Te veo bailando el baile
 del espia bajo la mesa,
B5             A5   B5                A5 ]--------> Sin apoyar la mano D.<
al compas de la sirena de policia;
pero no importa, esto se cura
con una dieta de alcohol, pastillas, faso,
ocho hs. de paja (awante) y la locura,
que es la fisura mas dura.
Y la locura que es la fisura mas dura.

Riff 2                                             Riff 2
Tito, deja esa porqueria¡¡¡¡¡

C 5        E5    B5                D5
Amigo tito. te pongo el pecho de espejo
pa´que te quieras
SI estas maltrecho.
Aca tenes un amigo, que te condena a estar biem,
para aliviarte un poquito
de ese maldito martirio de distorciones,
aunque emocione, iluciones, reaccione biem,
en la cabeza recta.
Por que la tuerce, la hcae perversa,
para que salga la histeria,
miedos, miserias, atlas de mentiras,
proezas.
Y aplastar a la culpa 
de haber matado a cristo,
por ser decente como la gente 
que mata por envidia,
que es la decidia de los viejos 
que, como yo, solo juzga
                                G5]--------- > razguidos bien crudos]
y da un concejo.


Riff 2                                             Riff 2   Varias vec.
Tito, deja esa porqueria¡¡¡¡¡¡

Riff 3
Tito, deja esa porqueria¡¡¡¡¡¡   1 vez

Riff 2                                             Riff 2  Varias vec.
Tito, deja esa porqueria¡¡¡¡¡¡

Riff 1
1[----------------------------------------------------------------------------]
2[----------------------------------------------------------------------------]
3[----------------------------------------------------------------------------]
4[----------------------------6-----------------------------------------------] 
5[----------------------7/8--------------------------------------------------]  
6[----5---7-----5---------------5----7----5---sigue asi ---5----7----5-]    qued


    Riff 2
[----------------------------------------------------------------------------]
[----------------------------------------------------------------------------]
[----------------------------------------------------------------------------]
[----------------------------------------------------------------------------]
[----------------------------------------------------------------------------]
[----------2-2--4-4---------2-2--4-4-----2-2--4------------------------]

Riff 3
[----------------------------------------------------------------------------]
[----------------------------------------------------------------------------]
[----------------------------------------------------------------------------]
[----------------------------------------------------------------------------]
[----------------------------------------------------------------------------]
[-----3-3---6-6-----3-3----6-6-----3-3---6-6------3-5----3-4---------]

           SOL >a                                     Sol>c
[----------x---------------------->---------x-----------------------------------
[----------10-------------------->---------8-----------------------------------]
[----------10-------------------->---------8-----------------------------------]
[----------9--------------------->---------7-----------------------------------]
[----------10-------------------->---------8-----------------------------------]
[----------x---------------------->---------x-----------------------------------

Este TAB dedicado  integramente a mi primo  EZE 
es facilicimo¡¡¡¡¡ practica¡¡¡¡ 

RODRIGO
P/D: y tmb. a la señora ana del valle medina
que la quiero mucho y me ayuda mucho
(MI vieja)
Este fichero es trabajo propio de su transcriptor y representa su interpretación personal de la canción. El material contenido en esta página es para exclusivo uso privado, por lo que se prohibe su reproducción o retransmisión, así como su uso para fines comerciales.

Fuente: Tito mariscal: Letra y Acordes (LaCuerda.net)


Otras partituras que podrían interesarte: