acordes.cc 
 letras y acordes > a > amen > te beso diccionario de acordes 
Te beso de Amen
AUTOR: Marcello motta
Amen Tabs
LaCuerda.net
imprimir Te beso de Amen 
Intro: G

    G          D      B      Em
Mi amor es más grande cada vez
      C         G
y aunque no estas aquí
C                G
te beso y en mi mente hoy
    G          D      B      Em
no puedo dejar de pensar en ti
   C      A
no puedo imaginar la vida
       D          D7            G
ahora si tú no estas aquí, solo sueño y...

*CORO*
C                G
Te beso en mi mente hoy
C                G
te beso en mi mente hoy
Cm          A      D
te beso en mi mente hoy
C                G
espero verte pronto.

    G          D    B        Em
Mírame, ya no puedo ni dormir
      C      G      C          G
me faltas y el tiempo solo me dice que no
     G       D      B      Em
Qué pasó, por qué te fuiste así
     C   A                        D          D7
Te extraño cuando en las mañanas despierto y tú no estas ahí
         G
solo sueño y...


*CORO*


Solo: D# - A# (x3) - A - D - C - G
e|----------------------------------------------------------------------18------
B|-12/13-12/13-12/13-12/13-12/13-12/13-12/13-12/13-13/15--18/20.-18/20.----<20>-
G|------------------------------------------------------------------------------
D|------------------------------------------------------------------------------
A|------------------------------------------------------------------------------
E|------------------------------------------------------------------------------

e|------------------20.-18.-20-----------------------------20/22-20/22-20/22.--
B|-----------------------------<18>-15-18---------------18---------------------
G|-19-17-15-<17>-15-----------------------<17>-15-17/19------------------------
D|-----------------------------------------------------------------------------
A|-----------------------------------------------------------------------------
E|-----------------------------------------------------------------------------

                                             |-G-|
e|----17-18-17---------------------------------------------------------------x--
B|-20----------20-<18>-15--------------------<11>-<11>-----------------------x--
G|------------------------<17>-14-<15>-12--------------12.---7-7-7/5-5-5-4---4--
D|-----------------------------------------------------------9-9-9/7-7-7-5---5--
A|---------------------------------------------------------------------------5--
E|---------------------------------------------------------------------------3--


    G          D      B      Em
Mi amor es más grande cada vez
      C         G
y aunque no estas aquí
   Cm                G   C - G
te beso y en mi mente hoy.










             --------
          º-| ¤    ¤ |-º
          º-|  LuïS  |-º
          º-| ¤    ¤ |-º
              \    /
              |    |
      ·===========================·
      | luis_6cuerdas@hotmail.com |
      ·===========================·


*Si hubiese algún error o alguna duda, escribe al mail o avisa por MSN*
Este fichero es trabajo propio de su transcriptor y representa su interpretación personal de la canción. El material contenido en esta página es para exclusivo uso privado, por lo que se prohibe su reproducción o retransmisión, así como su uso para fines comerciales.

Fuente: Te beso: Letra y Acordes (LaCuerda.net)


Otras partituras que podrían interesarte: