acordes.cc 
 letras y acordes > r > rojo > te alabaré mi buen jesús diccionario de acordes 
Te Alabaré mi Buen Jesús de Rojo
AUTOR: Enmanuel Espinosa
Rojo Tabs
LaCuerda.net
imprimir Te Alabaré mi Buen Jesús de Rojo 
Esta muy buena, la saque lo mas parecida a la original
con unos pequeños arreglos a los acordes

Intro en la guitarra Acustica

E ---0--|---0--|---0---|
B ---0--|---0--|---0---|
G ---9--|---8--|---6---|
D ---9--|---9--|---7---|
A ---7--|---9--|---7---|
E ---X--|---7--|---5---|
     E      B      A

Guitarra de fondo
E--------------------------------------------------- |
B-----9/12--12--10-9--5----------------------------- |x2



E             Bsus4
Eres tú la unica razón
       C#             A
de mi adoración, Oh Jesús.
E               Bsus4
Eres tú, la esperanza que
    C#             A
Anhele tener, Oh Jesús.

F#m                     B    A
Confié en tí me has ayudado
D                      B
Tu salvación me has regalado.
E                     Bsus4
Hoy hay gozo en mi corazón
         C#          B
Con mi canto te alabaré.

Coro:
  F#       C#  D#m         B   A
//Te alabaré, Te glorificaré
F#       C#           B   C#
Te alabaré mi Buen Jesús      //

Intro

Estribillo

E       Asus            B  E        Asus4          B
En todo tiempo de alabaré  En todo tiempo te adoraré

Puente

E5-C5-D5-B5 x3
E5-C5-D5

Guitarra Eléctrica Fondo
E--------------------------------------------------- |
B--------------------------------------------------- |
G--------------------------------------------------- | x4
D--------------------7------------------------------ |
A---7-7---10--10-7-9---9--7------------------------- |
E--------------------------------------------------- |

Luego se le sube medio tono al Coro

  G       D   Em         C   B
//Te alabaré, Te glorificaré
G        D            C   B
Te alabaré mi Buen Jesús      //

Espero q la disfutren tocándola para alabar a Dios
Dios los Bendiga
Este fichero es trabajo propio de su transcriptor y representa su interpretación personal de la canción. El material contenido en esta página es para exclusivo uso privado, por lo que se prohibe su reproducción o retransmisión, así como su uso para fines comerciales.

Fuente: Te Alabaré mi Buen Jesús: Letra y Acordes (LaCuerda.net)


Otras partituras que podrían interesarte: