acordes.cc 
 letras y acordes > e > enanitos verdes > tan solo un instante diccionario de acordes 
Tan solo un instante de Enanitos Verdes
AUTOR: Marciano Cantero, Felipe Staiti
Enanitos Verdes Tabs
LaCuerda.net
imprimir Tan solo un instante de Enanitos Verdes 
Intro   E E7 A Am E B7 E

E                                        F#m
Pensaba en los buenos momentos que tuve junto a ti,
   B               B7                E
y cada mañana despierto pero tú no estás aquí.

Quisiera saber si al menos tú me extrañas, así,    E7
parece que la nostalgia se ha apoderado, de mí.

CORO
    A                                  E           C#7
Me dicen que sólo de ti yo recuerdo lo bueno, lo bueno,
   F#m                B                  E
pero francamente no creo que haya algo mal en ti.


Por qué cometemos errores, será que nos gusta sufrir?
será que nos gusta arriesgarnos y en el riesgo ser feliz.

Pudimos hacer tantas cosas hasta el mundo cambiar,
pero no pudimos siquiera cambiar nuestra historia personal.

CORO

CORO 2
Quisiera volver en el tiempo tan solo un instante y mirarte,
quisiera volver en el tiempo, el tiempo en que fui feliz.

SOLO
  E                 F#m       B                     E
e-----------------------------------------------------------|
B-5-7-9--5-7-----------5-5----7-9-10---5-7-------------5-5--|
G-------8----4-4---------------------8-----4-4-4------------|
D----------------7-6-7---------------------------7-4-6------|
A-----------------------------------------------------------|
  E          E7              A                 B
e-----------------------------------------------------------|
B-5-7-9-10-9-7-5-7-9---9-7-5-7--5---5---------10-9-7-5-9/7--|
G---------------------------------6---6-4-6---------------4-|
D-----------------------------------------------------------|
          E   E7
e--------------4---5---7---9-11-12-14-16-12-----|
B-------------7--7---7---7----------------------|
G-----------------------------------------------|
D---6---4---------------------------------------|
A-----7---7-------------------------------------|

CORO
    A                Asus                E           C#7
Me dicen que sólo de ti yo recuerdo lo bueno, lo bueno,
   Am                B                  E          E7
pero francamente no creo que haya algo mal en ti.
    A                 Asus                E             G#m C#7
Quisiera volver en el tiempo tan solo un instante, y mirarte,
 Am                      B                       F#   A      E
quisiera volver en el tiempo, el tiempo en que fui, feliz.

Asus     012020
Este fichero es trabajo propio de su transcriptor y representa su interpretación personal de la canción. El material contenido en esta página es para exclusivo uso privado, por lo que se prohibe su reproducción o retransmisión, así como su uso para fines comerciales.

Fuente: Tan solo un instante: Letra y Acordes (LaCuerda.net)


Otras partituras que podrían interesarte: