acordes.cc 
 letras y acordes > f > la fuga > sueños diccionario de acordes 
Sueños de La Fuga
AUTOR: -?-
La Fuga Tabs
LaCuerda.net
imprimir Sueños de La Fuga 
  MI       LA-LA#-SI     LA   SI    MI
-------------------------------------------
------9-7---------------10-9-7-7-----------
----------9-----9-8---6----------9-6-------
--6-9-------6-9-----7----------------9-----
-------------------------------------------
-------------------------------------------

 MI       LA-LA#-SI     LA   SI    MI
-------------------------------------------
------9-7---------------10-9-7-7-----------
----------9-----9-8---6----------6-8-9-----
--6-9-------6-9-----7----------------------
-------------------------------------------
-------------------------------------------




MIm             DO      SOL         RE
 En mis sueños puedo ser laberinto de pasiones,
MIm             DO      SOL         RE
 desear y poseer, esconderme en mil rincones
MIm             DO      SOL         RE
 puedo ser lágrima que cae de tus ojos ya cansados,
MIm             DO      SOL         RE
 mensajero de poder, aire que besa tus labios

SOL SIm x2


SOL               SIm                   DO  |
 Ya no quiero salir para ver que tal te va  |
                 RE                         |
 quiero seguir soñando                      |
SOL                SIm                  DO
 quiero seguir aquí, no quiero despertar,    / x2
                     RE                     |
 ¿sin sueños pa' que valgo?                 |
                                            /

MIm           DO        SOL        RE
En mis sueños pude ver como un dia me besabas,
de la cama yo caí agarrándome a la almohada
soñaré que tu estás aquí,
tu cuerpo sin ropa en mis sábanas,
tiemblo solo de pensar que despertaré mañana


SOL SIm x2


SOL               SIm                   DO  |
 Ya no quiero salir para ver que tal te va  |
                 RE                         |
 quiero seguir soñando                      |
SOL                SIm                  DO
 quiero seguir aquí, no quiero despertar,    / x2
                     RE                     |
 ¿sin sueños pa' que valgo?                 |
                                            /
Este fichero es trabajo propio de su transcriptor y representa su interpretación personal de la canción. El material contenido en esta página es para exclusivo uso privado, por lo que se prohibe su reproducción o retransmisión, así como su uso para fines comerciales.

Fuente: Sueños: Letra y Acordes (LaCuerda.net)


Otras partituras que podrían interesarte: