acordes.cc 
 letras y acordes > j > joan sebastian > sublime maldicion diccionario de acordes 
Sublime maldicion de Joan Sebastian
AUTOR: Joan Sebastian
Joan Sebastian Tabs
LaCuerda.net
imprimir Sublime maldicion de Joan Sebastian 
Esta es una SUPER ROLA DEDICADA PARA (3M) !!!!! ojalá y les guste

REQUINTO!!!

e--8-------10----8-------10----8-------8----------------------12-10-8----12-10-8
B----10-------10---10-------10---10------10-8---------8-10-12---------12--------
G-------10------------10------------10--------9--9-10---------------------------
D-------------------------------------------------------------------------------
A-------------------------------------------------------------------------------
E-------------------------------------------------------------------------------


e--8-------10----8-------10----8-------8----------------------12-10-8----12-10-8
B----10-------10---10-------10---10------10-8---------8-10-12---------12--------
G-------10------------10------------10--------9--9-10---------------------------
D-------------------------------------------------------------------------------
A-------------------------------------------------------------------------------
E-------------------------------------------------------------------------------


            Am                  
Sublime maldición
F                       C        
de recordarte cien por ciento
     E7       Am                  
tus besos, tu aliento,
    F                     
tu boca un diente chueco
     C                 E7      
ya lo sé, nunca me libraré
                    Am       
de esta sublime maldición.
                     

             Am 
Sublime maldición
 F              C         
de recordarte desnuda
   E7        Am                 
graciosa, huesuda
     F                   C      
ay cuánto no daria por besar
               E7    
tu escondido lunar
   F                  
y nada,
                C      
nada tengo de derecho
    E7     
tan solo
                 Am       
esta sublime maldición.

            Am                    
Sublime maldición
F                C                                   
al recordar tu mirada    
    E7    Am         
la rosa salada
      F                 
del llanto y el dolor   
          C           
que te causé
             E7      
nunca me libraré
                   Am        
de esa sublime maldición.
                   
             Am       
Sublime maldición
 F               C          
al recordarte desnuda... 

SALUDOS A LA FAMILIA DE XOXOCOTLA!!!!
... OMAR.
Este fichero es trabajo propio de su transcriptor y representa su interpretación personal de la canción. El material contenido en esta página es para exclusivo uso privado, por lo que se prohibe su reproducción o retransmisión, así como su uso para fines comerciales.

Fuente: Sublime maldicion: Letra y Acordes (LaCuerda.net)


Otras partituras que podrían interesarte: