acordes.cc 
 letras y acordes > r > rata blanca > sombra inerte del amor diccionario de acordes 
Sombra inerte del amor de Rata Blanca
AUTOR: Walter Giardino
Rata Blanca Tabs
LaCuerda.net
imprimir Sombra inerte del amor de Rata Blanca 
INTRO:

 e ------------------------------------------------------------
 B ------------------------------------------------------------
 G ------------------------------------------------------------
 D --0-7-0-7-0-7-8---0-7-0-7-0-7-3---0-7-0-7-0-7-8---10-8-8-5--
 A --0-7-0-7-0-7-8---0-7-0-7-0-7-3---0-7-0-7-0-7-8---10-8-8-5--
 E --0-5-0-5-0-5-6---0-5-0-5-0-5-3---0-5-0-5-0-5-6---8--6-6-3--


VERSO:

 e -----------------------------------
 B -----------------------------------
 G -----------------------------------
 D --0-7-0-7-0-7-8---0-7-7-0-3-0-5-3--
 A --0-7-0-7-0-7-8---0-7-7-0-3-0-5-3--
 E --0-5-0-5-0-5-6---0-5-5-0-3-0-3-0--


PRE-CORO:

 e ----------------------------------
 B ----------------------------------
 G ----------------------------------
 D --7------------------------5-7-7--
 A --7------------------------5-7-7--
 E --5------------------------3-5-5--


ESTRIBILLO:

   G
Recíbeme...
A# A
Entre tus brazos
   G
Recíbeme
A# A
Como alguien sano
A# A#
Si hay en mi sangre al fin
A# A#
Necesito comprensión recíbeme
Este fichero es trabajo propio de su transcriptor y representa su interpretación personal de la canción. El material contenido en esta página es para exclusivo uso privado, por lo que se prohibe su reproducción o retransmisión, así como su uso para fines comerciales.

Fuente: Sombra inerte del amor: Letra y Acordes (LaCuerda.net)


Otras partituras que podrían interesarte: