acordes.cc 
 letras y acordes > r > la rondalla de saltillo > sólo puedo decir te amo diccionario de acordes 
Sólo puedo decir te amo de la Rondalla de Saltillo
AUTOR: -?-
la Rondalla de Saltillo Tabs
LaCuerda.net
imprimir Sólo puedo decir te amo de la Rondalla de Saltillo 
********************************************************************************
* He aquí la canción, hay ciertas dudas con algunos acordes, pero, siguiendo el 
* la Rondalla de Saltillo, las notas podrían ser adecuadas (Nótese que no dije c
* tocarla. Por pura estética melódica, para matizar, hay un Fa#m y un Fa#7, pero
* tocar TODOS como Fa#m. De cualquier forma, no se escucha tan mal.             
* ATENCIÓN: Es posible que haya errores en la letra, pues no le entendí al 100%.
********************************************************************************

Por si las dudas, aquí los acordes:
                                                                                
   LA     LA7      LA7      RE     REm     RE7     MI    DO#m    FA#7    FA#m   
|---0---|---0---|---0---|---0---|---0---|---0--|---0---|---4---|---2---|---2---|
|---0---|---0---|---0---|---0---|---0---|---0--|---2---|---4---|---4---|---4---|
|---2---|---2---|---2---|---0---|---0---|---0--|---2---|---6---|---2---|---4---|
|---2---|---1---|---0---|---2---|---2---|---2--|---1---|---6---|---3---|---2---|
|---2---|---2---|---2---|---3---|---3---|---2--|---0---|---5---|---2---|---2---|
|---0---|---0---|---0---|---2---|---1---|---2--|---0---|---4---|---2---|---2---|
                                                                                
--------------------------------------------------------------------------------
Ahora sí, vamos con los adornos melódicos:

[INTRO y ACOMPAÑAMIENTO]:

     LA                MI                   RE             MI
6|-----------------------------------------------------------------
5|-----------------------------------------------------------------
4|-----------------------------------------------------------------
3|---9----9----9---9---9----9----9-----9----7----7----7----9-------
2|---10--------10------9----9----9-----9----7----7----7----9-------
1|---9---------9-------7----7----12----7----5----5----5----7-------


   LA                  MI                RE               MI     LA
--------------------------------------------------------------------------------
--------------------------------------------------------------------------------
--------------------------------------------------------------------------------
---9-----9-------------9----9---9---9----7--7--7--7--7----9------9---------9----
---10-------10---------9----9---9---9----7--7--7--7--7----9------10---10--------
---9------------9------7----7--7/9--7----5--5--5--5--5----7------9--------------


[INTERMEDIO y ACOMPAÑAMIENTO] (Es muy similar al INTRO)

     LA                MI                   RE             MI
6|-----------------------------------------------------------------
5|-----------------------------------------------------------------
4|-----------------------------------------------------------------
3|---9----9----9---9---9----9----9-----9----7----7----7----9-------
2|---10--------10------9----9----9-----9----7----7----7----9-------
1|---9---------9-------7----7----12----7----5----5----5----7-------

   LA                  MI                    RE                 MI          LA
--------------------------------------------------------------------------------
--------------------------------------------------------------------------------
--------------------------------------------------------------------------------
---9-----9------9------9----9---9---9---9----7------------7-----------9---------
---10-------10---------9----9---9---9---9----7---------7-----7-----9-----9-----1
---9-------------------7----7---7---7---7----5------5-----------7-----------9---

--------------------------------------------------------------------------------

Ahora sí, vamos a la canción:

[INTRO y ACOMPAÑAMIENTO]


LA                           LA7 
Todos los días tus ojos me reflejan el amor
      RE             MI     DO#m  FA#7          <-- Este FA#7 puede ser también 
la verdad es que no hay por qué dudar
   SIm          MI      DO#m       FA#m
mi corazón te ofrece un mundo de color
     RE                  SI7        MI
y luego envuelto en el engaño quedo yo.


    LA                         LA7 
Mi cuerpo se siente perdido cuando tú no estas
      RE        MI        DO#m FA#7             <-- Este FA#7 puede ser también 
como ayer, como siempre y como hoy
     SIm               MI        DO#m            FA#m
Pero hoy te siento imposible y entonces qué hago yo
    RE           SI7               MI
te quiero sentir,    pero nunca podré.


 LA       LA7       LA7             RE
Amiga, tu das todo...   Y no pides nunca nada
    REm         LA         SI7
Con tus ojos iluminas el camino de mi vida
        MI
que por tí se ha equivocado.


LA                LA7                  LA7
  Si yo pudiera jugar con el tiempo...
                 RE                   REm
Si yo pudiera decirte lo que siento...
              LA                   SI7
Si yo pudiera darte el universo...
        RE     *Sim            MI       LA       <-- El *Sim puede omitirse, sól
Pero perdóname,   sólo puedo decir: 'Te amo'.


[INTERMEDIO y ACOMPAÑAMIENTO] (inicia en el < La > de 'Te amo')


   LA                               LA7 
Contigo mis sueños de amor quisiera se volvieran realidad
         RE                    MI    DO#m FA#7    <-- Este FA#7 puede ser tambié
Pues te siento tan cerca y tan linda como hoy
SIm               MI           DO#m    FA#m
No hacen falta palabras, ni un poe e e ma
       RE           SI7                  MI
ni la esencia sutil    de una rosa para amar


 LA       LA7       LA7             RE
Amiga, tu das todo...   Y no pides nunca nada
    REm         LA         SI7
Con tus ojos iluminas el camino de mi vida
        MI
que por tí se ha equivocado.


LA                LA7                  LA7
  Si yo pudiera jugar con el tiempo...
                 RE                   REm
Si yo pudiera decirte lo que siento...
              LA                   SI7
Si yo pudiera darte el universo...
        RE     *Sim            MI       LA          <-- El *Sim puede omitirse, 
Pero perdóname,   sólo puedo decir: 'Te amo'.
                                                                            Re7M
                 RE                   REm                                   LA7 
'Perdona mi amor,  pues tan pobre soy,  que yo, sólo puedo decir... Te amo'     

...........................................................................

Desde Tapachula, Chiapas; México. Saludos ¡¡¡
Este fichero es trabajo propio de su transcriptor y representa su interpretación personal de la canción. El material contenido en esta página es para exclusivo uso privado, por lo que se prohibe su reproducción o retransmisión, así como su uso para fines comerciales.

Fuente: Sólo puedo decir te amo: Letra y Acordes (LaCuerda.net)


Otras partituras que podrían interesarte: