acordes.cc 
 letras y acordes > f > los fabulosos cadillacs > siempre me hablaste de ella diccionario de acordes 
Siempre me hablaste de ella de los Fabulosos Cadillacs
AUTOR: -?-
los Fabulosos Cadillacs Tabs
LaCuerda.net
imprimir Siempre me hablaste de ella de los Fabulosos Cadillacs 
G|----------------------------|
D|---7------------------------|
A|-----7----4---4-----9---8---| x2   Intro
E|-5-----5----4----7----6-----|

G|-------------------------------------|
D|-------------------------------------|
A|------------4--4------------8--------| x5 Estrofa
E|-5-5-5-5--7---4--7-7-2--6-6---6------|

G|----------------------------------|
D|---------11-----------9-----------|
A|------------11-----------9--------| x2 Coro
E|-5--7--9--------9--7--------7-----|


Vuelve Intro x2

Estrofa x 5

Coro

Intro x1 y Despues

G|---9----------------------3-------|
D|-7---6-----6---4----4---3---3-----|
A|--------7---------5---------------| x2
E|----------------------------------|

Coro Y

G|----------------------------------|
D|----------------------------------|
A|----------------------------------| x2 A
E|-5-5-5-5---7-7-7-7--9-9-9-9-------|

Desde Palmira Colombia
Este fichero es trabajo propio de su transcriptor y representa su interpretación personal de la canción. El material contenido en esta página es para exclusivo uso privado, por lo que se prohibe su reproducción o retransmisión, así como su uso para fines comerciales.

Fuente: Siempre me hablaste de ella: Letra y Acordes (LaCuerda.net)


Otras partituras que podrían interesarte: