acordes.cc 
 letras y acordes > h > hombres g > si yo no te tengo a tí diccionario de acordes 
Si yo no te tengo a tí de Hombres G
AUTOR: David Summers
Hombres G Tabs
LaCuerda.net
imprimir Si yo no te tengo a tí de Hombres G 
Riff 1
    A
PM.................................
e|------------------------------------|
B|------------------------------------|
G|---2-2-1h2--2-2-1h2--2-2-1h2--2-2-1-|
D|---2-2-2----2-2-2----2-2-2----2-2-2-|
A|------------------------------------|
E|------------------------------------|


Riff 2
*NOTA: USAR CEJILLA EN 1ER TRASTE, PERO SOLO TOCAS 3RA Y 4TA CUERDA
    F#
PM.................................
e|------------------------------------|
B|------------------------------------|
G|---2-2-1h2--2-2-1h2--2-2-1h2--2-2-1-|
D|---4-4-4----4-4-4----4-4-4----4-4-4-|
A|------------------------------------|
E|------------------------------------|

Riff 3
e|--------|
B|--------|
G|---3-2--|
D|---2-2--|
A|---2-2--|
E|--------|





INTRO:
RIFF 1 / RIFF 2 / RIFF 1 / RIFF 2


   A                  E                      A
   YO no tengo        nada que me haga       sonreir
PM........................................................................
e|------------------------------------|------------------------------------|
B|------------------------------------|------------------------------------|
G|-----2-2------2-2-------------------|-----2-2------2-2------2-2------2-2-|
D|-----2-2------2-2------2-2------2-2-|-----2-2------2-2------2-2------2-2-|
A|-0-0------0-0----------2-2------2-2-|-0-0------0-0------0-0-------0-0----|
E|-------------------0-0------0-0-----|------------------------------------|


    A                 E                      A
    nadie que me      abrace fuerte          y me haga feliz
PM........................................................................
e|------------------------------------|------------------------------------|
B|------------------------------------|------------------------------------|
G|-----2-2------2-2-------------------|-----2-2------2-2------2-2------2-2-|
D|-----2-2------2-2------2-2------2-2-|-----2-2------2-2------2-2------2-2-|
A|-0-0------0-0----------2-2------2-2-|-0-0------0-0------0-0-------0-0----|
E|-------------------0-0------0-0-----|------------------------------------|

     Bm                                     F#m
     no tengo nada que hacer                no tengo porque vivir
PM........................................................................
e|------------------------------------|------------------------------------|
B|------------------------------------|------------------------------------|
G|-----4-4------4-4------4-4------4-4-|------------------------------------|
D|-----4-4------4-4------4-4------4-4-|-----4-4------4-4------4-4------4-4-|
A|-2-2------2-2------2-2------2-2-----|-----4-4------4-4------4-4------4-4-|
E|------------------------------------|-2-2------2-2------2-2------2-2-----|


    Bm                                      E
    no tengo nada de nada                   si no te tengo a ti
PM.........................................................................
e|------------------------------------|------------------------------------|
B|------------------------------------|------------------------------------|
G|-----4-4------4-4------4-4------4-4-|------------------------------------|
D|-----4-4------4-4------4-4------4-4-|-----2-2------2-2------2-2------2-2-|
A|-2-2------2-2------2-2------2-2-----|-----2-2------2-2------2-2------2-2-|
E|------------------------------------|-0-0------0-0------0-0------0-0-----|


     A                E
     Solo quiero      que estes cerca de mi
PM........................................................................
e|------------------------------------|------------------------------------|
B|------------------------------------|------------------------------------|
G|-----2-2------2-2-------------------|-----2-2------2-2------2-2------2-2-|
D|-----2-2------2-2------2-2------2-2-|-----2-2------2-2------2-2------2-2-|
A|-0-0------0-0----------2-2------2-2-|-0-0------0-0------0-0-------0-0----|
E|-------------------0-0------0-0-----|------------------------------------|




A             E                 A
yo no tengo a nadie sobre quien escribir
A              E                      A
nadie que se enfade y nadie con quien discutir
   Bm                      F#m
no tengo a nadie con quien intentar sobrevivir
   Bm                         E
no tengo con quien bailar descalzos por Madrid


*CORO*

            A                         F#m
Si yo no te tengo a ti si no estas cerca de mi
          A                           F#m
Si no me besas me abrazas que sera de mi sin ti
            D         E            D         E
si yo no te tengo a ti para ke quiero vivir
             E
si yo no te tengo a ti.


Intro
RIFF 1 / RIFF 2 / RIFF 1 / RIFF 2
    A                                        F#m
e|------------------------------------|---------------------------------------|
B|-10-10-9h10--10-9h10--10-9h10--10h9-|-10-10--9h10--10--9h10--10--9-10--10h9-|
G|--9--9-9------9-9------9-9------9---|-11-11-11-----11-11-----11-11-----11---|
D|------------------------------------|---------------------------------------|
A|------------------------------------|---------------------------------------|
E|------------------------------------|---------------------------------------|



 A            E             A         D A
                                     Riff 3
Si yo no te tengo a ti para que seguir
     A               E                  A        D A
                                                 Riff 3
para que escribir canciones a quien quiero mentir
  Bm                           F#m
para que un par de palabras te quiero y no llorare
  Bm                                E
para que todas estas lagrimas que caen sobre un papel



*CORO*
           A                F#m
Si yo no te tengo a ti si no estas cerca de mi
          A                F#m
si no me besas me abrazas que sera de mi sin ti
            D         E             D        E
si yo no te tengo a ti para que quiero vivir
            D        A
si yo no te tengo a ti.


*SOLO*
    A                                        F#m
e|------------------------------------|---------------------------------------|
B|-10-10-9h10--10-9h10--10-9h10--10h9-|-10-10--9h10--10--9h10--10--9-10--10h9-|
G|--9--9-9------9-9------9-9------9---|-11-11-11-----11-11-----11-11-----11---|
D|------------------------------------|---------------------------------------|
A|------------------------------------|---------------------------------------|
E|------------------------------------|---------------------------------------|



    A                                        F#m
    Si yo no te tengo a ti                   Si yo no te tengo a ti
e|------------------------------------|---------------------------------------|
B|-10-10-9h10--10-9h10--10-9h10--10h9-|-10-10--9h10--10--9h10--10--9-10--10h9-|
G|--9--9-9------9-9------9-9------9---|-11-11-11-----11-11-----11-11-----11---|
D|------------------------------------|---------------------------------------|
A|------------------------------------|---------------------------------------|
E|------------------------------------|---------------------------------------|
                                Repetir 4 veces


            D          E
Si yo no te tengo a ti
             D       E
para que quiero vivir
             E
si yo no te tengo a ti




Intro
Riff 1
    A
PM.................................
e|------------------------------------|
B|------------------------------------|
G|---2-2-1h2--2-2-1h2--2-2-1h2--2-2-1-|
D|---2-2-2----2-2-2----2-2-2----2-2-2-|
A|------------------------------------|
E|------------------------------------|

Riff 2
    F#
PM.................................
e|------------------------------------|
B|------------------------------------|
G|---2-2-1h2--2-2-1h2--2-2-1h2--2-2-1-|
D|---4-4-4----4-4-4----4-4-4----4-4-4-|
A|------------------------------------|
E|------------------------------------|

    Riff 1    Riff 2
    A         F#m
e|---------|---------------|
B|--10-10--|--10-10---10---|
G|---9--9--|--11-11---11---|
D|---------|---------------|
A|---------|---------------|
E|---------|---------------|


            Riff 1                  RIFF 2
            A                       F#m
Shalalalalalalalala ah ah ah, shalalalalalalala ah ah ah

            Riff 1                  RIFF 2
            A                       F#m
Si yo no te tengo a ti, si yo no te tengo a ti




Nota: En esta parte final, puedes tocar el A y F#m en 2do traste
o tocarla en 10 y 9 (como se indica en la parte del solo) o ambas.


dudas con el conta: alva99jr@hotmail.com
Este fichero es trabajo propio de su transcriptor y representa su interpretación personal de la canción. El material contenido en esta página es para exclusivo uso privado, por lo que se prohibe su reproducción o retransmisión, así como su uso para fines comerciales.

Fuente: Si yo no te tengo a tí: Letra y Acordes (LaCuerda.net)


Otras partituras que podrían interesarte: