acordes.cc 
 letras y acordes > r > la rondalla de saltillo > si volvieras otra vez diccionario de acordes 
Si volvieras otra vez de la Rondalla de Saltillo
AUTOR: Homero Aguilar
la Rondalla de Saltillo Tabs
LaCuerda.net
imprimir Si volvieras otra vez de la Rondalla de Saltillo 
   Esta canción está bastante sencilla, es la versión del disco
lasfrases entre () significa que son el coro y los tonos que están
entre () son los cambios que entran en el mismo... los tonos 
marcados con un * significa que se tocan a escala (con cejilla), 
no la incluyo porque son tonos muy sencillos y básicos...para 
entender como son algunos cambios que parecen un tanto revoltosos
escucha el disco...

   

   **REQUINTO**

A     F#m      D E            A      F#m      D E
E------------------------------------------------------------------
B------------------------------------------------------------------
G------------------------------------------------------------------
D------------------------------------------------------------------
A--7------------------------------7--------------------------------
e-5-0-7_9_7-12---12-9-12-9-7-----5-0-7_9_7-12---12-9-12-9-7--------



          A           F#m  D         E          A           F#m  D
   Si volvieras otra vez,    a entregarme nuevamente tu querer,
      E           A         F#m  D        E     A    F#m  D  E      
te daría todo un mundo de amor, lleno de sol, lleno de miel,
       A           F#m D       E           A          F#m   D  
si volvieras otra vez,   perdonando mis errores del ayer,
      E            A        F#m D                  A  
hallarías mi otra forma de ser  y me querrías también...


   **LLEVA ESTE ARREGLO CON LA GUITARRA Y ESTOS SON LOS TONOS*** 
      F         A
E------------------------------------------------
B------------------------------------------------
G------------------------------------------------
D------------------------------------------------
A--7---------------------------------------------
e-5-0-7_8 7_8-7-5--------------------------------


         F                             F--G            A*    
   Yo jugué con nuestro amor, es muy cierto y me arrepiento de mi error,
                        B7*                                   E*   D*-G-E
pues tu ausencia despertó en mi corazón algo mas que un gran amor,
       A           F#m (A)(F#m) D  (E)        E           A          F#m (A)(F#m
si volvieras otra vez (si  vol-vie-ras) perdonando mis errores del ayer  (si vol
      E            A        F#m D         E        A--F-A
hallarías mi otra forma de ser  y me querrías también...




   **REQUINTO**
A     F#m      D E            A      F#m      D E
E------------------------------------------------------------------
B------------------------------------------------------------------
G------------------------------------------------------------------
D------------------------------------------------------------------
A--7------------------------------7--------------------------------
e-5-0-7_9_7-12---12-9-12-9-7-----5-0-7_9_7-12---12-9-12-9-7--------

 F         A
E------------------------------------------------
B------------------------------------------------
G------------------------------------------------
D------------------------------------------------
A--7---------------------------------------------
e-5-0-7_8 7_8-7-5--------------------------------




          F                             F--G            A*    
   Yo jugué con nuestro amor, es muy cierto y me arrepiento de mi error,
                        B7*                                   E*   D*-G-E
pues tu ausencia despertó en mi corazón algo mas que un gran amor,
       A           F#m (A)(F#m) D  (E)        E           A          F#m (A)(F#m
si volvieras otra vez (si  vol-vie-ras) perdonando mis errores del ayer  (si vol
      E            A        F#m D         E    
hallarías mi otra forma de ser  y me querrías 
        A          F#m      D         E           A     F#m     D         E
tam---bién...               y me querrías       tamb----ien     y me querrías
E-------------------------------------------------------------------------------
B-------------------------------------------------------------------------------
G-------------------------------------------------------------------------------
D-------------------------------------------------------------------------------
A----------7----------------------------------------7---------------------------
e---------5-0------7_9_7-12----------12-9-12-9-7---5-0--7_9_7-12---12-9---12-9-7

     A     F     A
tambie-----e-----en...
E------------------------------------------------
B------------------------------------------------
G------------------------------------------------
D------------------------------------------------
A-----7------------------------------------------
e----5-0-7_8-7-5---------------------------------



   **DEDICADA A EDITH...***
   **DUDAS, SUGERENCIAS, RECLAMACIONES, COMENTARIOS Y PETICIONES, MANDAME
UN E-MAIL...***
Este fichero es trabajo propio de su transcriptor y representa su interpretación personal de la canción. El material contenido en esta página es para exclusivo uso privado, por lo que se prohibe su reproducción o retransmisión, así como su uso para fines comerciales.

Fuente: Si volvieras otra vez: Letra y Acordes (LaCuerda.net)


Otras partituras que podrían interesarte: