acordes.cc 
 letras y acordes > a > alfredo casero > shima uta diccionario de acordes 
Shima Uta de Alfredo Casero
AUTOR: -?-
Alfredo Casero Tabs
LaCuerda.net
imprimir Shima Uta de Alfredo Casero 
Introducción:
    MI                            LA            SI          MI

e|--------------------11-12-----11-12-------------------------------------------
B|----------9--10--12-------12--------10---9-10-7-------------------------------
G|----8-9------------------------------------------9-8--11--9-------------------
D|--9---------------------------------------------------------------------------
A|------------------------------------------------------------------------------
E|------------------------------------------------------------------------------


      MI                 LA           SI     MI
De-i-go ga sakimidare kaze wo yobi arashi ga kita
     MI                      LA    SI          MI
Kurikaesu kanashimi_wa shima wataru nami no yo-u

  DO#m       SOL#m LA       DO#m
Uuji no mori de anata to deai
  DO#m        SOL#m    LA       SI
Uuji no shita de chiyo ni sayonara


     MI      SI     DO#m   SOL#m        LA    SI      MI
Shima uta yo kaze ni norí  tori to tomo ni umi wo watare
     MI      SI     DO#m   SOL#m       LA    SI      MI
Shima uta yo kaze ni norí todokete okure watashi no namida

     MI                       LA      SI       MI                  
De-i-go no hana mo chiri saza nami ga yureru dake
     MI                   LA      SI        MI
Sasayakana shiawase wa utakata no nami no hana

  DO#m       SOL#m LA       DO#m
Uuji no mori de utatta tomo yo
  DO#m        SOL#m    LA       SI
Uuji no shita de yachiyo no wakare


     MI      SI     DO#m   SOL#m        LA    SI      MI
Shima uta yo kaze ni norí  tori to tomo ni umi wo watare
     MI      SI     DO#m   SOL#m       LA    SI      MI
Shima uta yo kaze ni norí todokete okure watashi no ai wo

Hay otro punteo que se toca en el estribillo:

e|------------------------------------------------------------------------------
B|------------------------------------------------------------------------------
G|----8-9----11--9--8----8-9----11--9--8----------------------------------------
D|--9------------------9------------------9--7--6---6---------------------------
A|-----------------------------------------------------9--7--6---9---7----------
E|------------------------------------------------------------------------------

Transcripción de Juan Ignacio Garzón (jigarzon@uol.com.ar)
Este fichero es trabajo propio de su transcriptor y representa su interpretación personal de la canción. El material contenido en esta página es para exclusivo uso privado, por lo que se prohibe su reproducción o retransmisión, así como su uso para fines comerciales.

Fuente: Shima Uta: Letra y Acordes (LaCuerda.net)


Otras partituras que podrían interesarte: