acordes.cc 
 letras y acordes > i > intoxicados > se fue al cielo diccionario de acordes 
Se fue al cielo de Intoxicados
AUTOR: -?-
Intoxicados Tabs
LaCuerda.net
imprimir Se fue al cielo de Intoxicados 
          G
Cuando camino solo trato 
         C
q nadie me distraiga
           G          
seguramente estoy colgado
           G
en esas cosas que
     C             G
nadie me puede explicar


Armando mi propia religión
mi espiritu está tratando
de encontrar alguna
buena razon para justificar
vivir en este lugar.

       D
Pero ahora no quiero hacertte pensar
      D                  G
porque pensar tanto no es bueno.
       D
Eso me lo dijo un viejo que
        C               G
de tristeza se fue al cielo.

No quiero ir mas a ningun hospital,
porque ahi nunca me dicen nada.
Creo que un veterinario va a poder 
recetar algo para calmar este dolor.

Porque soy mas parecido a un perro de la calle
o a la planta que fumo en casa,
que a los que anhelan sin un gramo de arte
tener fama y dinero y salir en television.

D                                          G
 El doctor dice que mucho rockanroll, me puede hacer mal.
D                                 C          G
 Yo no creo nada, agarro la guitarra y empiezo a tocar.

  1º SOLO
     
   1 ---------------------------------------------------------------------------
     ---------------------------------------------------------------------------
     --4--4-5-4-7-2--2-4-2-5------------4--2-4-2---4--4-5-4-7-2--2-4-2-5--------
     ------------------------5--5-7-5-7----------------------------------5--5-7-
     ---------------------------------------------------------------------------
   6 ---------------------------------------------------------------------------

   1 ---------------------------------------------------------------------------
     --8/10-8------------10--12---10-8-----------------10-8-----------10-12---10
     ----------9-7--9-9----------------9-7-----7--9-7-------9-7--9-9------------
     --------------------------------------7h9---9------------------------------
     ---------------------------------------------------------------------------
   6 ---------------------------------------------------------------------------

   
Solo una cosa me gusta 
cuando hay tanto tanto por entender.
Son los que te alientan cuando hablas, cantas
aunque no esten de acuerdo o no afines bien.

Escuche por ahi que el alcohol y el tabaco
mataron mucha gente.
Y chamullando con mi amiga paraguaya
que me dice, pity, añara cope guare

El doctor dice que mucho rockanroll me puede hacer mal.
Yo le digo - Gracias doctor, nos vemos la semana pasada.

Pero ahora no quiero hacerte pensar
porque pensar tanto no es bueno
Eso me lo dijo un viejo que de tristeza se fue al cielo

[Solo 1]
Se fue al cielo,
pero pudo ir al infierno también,
yo creo que fue al cielo...

  2º SOLO
     
   1 --------------------------------------8-7-8-7--8-12-10-8-7--10-8-7-10-8-7-1
     -------------5---7-5-7-5--5-8-8-12-10--------------------------------------
     --4--4-5-4-5---7-----------------------------------------------------------
     ---------------------------------------------------------------------------
     ---------------------------------------------------------------------------
   6 ---------------------------------------------------------------------------
 yo creo que fue al cielo...

Emi sos un amigazo de p...madre!!!!
Este fichero es trabajo propio de su transcriptor y representa su interpretación personal de la canción. El material contenido en esta página es para exclusivo uso privado, por lo que se prohibe su reproducción o retransmisión, así como su uso para fines comerciales.

Fuente: Se fue al cielo: Letra y Acordes (LaCuerda.net)


Otras partituras que podrían interesarte: