acordes.cc 
 letras y acordes > a > attaque 77 > santiago diccionario de acordes 
Santiago de Attaque 77
AUTOR: -?-
Attaque 77 Tabs
LaCuerda.net
imprimir Santiago de Attaque 77 
Bueno esta es la mejor versión del mundo de Santiago y acompaña a las mejores ve
del mundo del solo de no me arrepiento, onírico y áspero..
Cualquier duda me mandan un maldito mail ...
--------------------------------------------------------------

[Intro] El intro empìeza con el bajo..>

|----------------------------------------------------------|
|----------------------------------------------------------|
|---------------10-10--10-8-8--------------------10-10-10--|
|-5-5--5-8-8--8-------------------5-5--5-8-8--8------------|


Despues > A C G F  A C F ] x 2 B|---10-8-6--

   A               C         G           F
Ellos están bien llenos y nosotros hambrientos,
      A         C      F
nos tienen aplacados así,
   A               C         G           F
bicicleteándonos con esta mierda de sueldo,
      A         C      F
y ellos viven a lo Beverly Hills


D              F          C              A#-A-A#
 así, mientras saben que vamos a esperar
D             F                E           E F G F E
 perdemos el tiempo, nadie nos va a ayudar


[intro]


   A               C         G           F
salgamos a las calles a tomar lo que es nuestro,
      A         C      F
la rabia no se puede ocultar
   A               C       G      F
saqueando sus viviendas, así como ellos
    A         C      F
hicieron con nuestra dignidad.

D              F          C           A#-A-A#
Mirando a lo lejos, se puede divisar
D             F                E      E F G F E
un pueblo dormido que quiere despertar


     Bb             C      D     A
Santiago no duerme más la siesta
     Bb             C      D     D
Santiago no duerme más la siesta


   A               C         G           F
la autoridad dio un paso al costado, dijeron:
      A         C      F
nosotros terminamos acá
   A               C         G      F
entonces contrataron matones a sueldo,
      A         C      F
basura hay en cualquier lugar



D              F          C           A#-A-A#
algunas personas nunca comprenderán
D             F                E      E F G F E
amargo el obrero no puede continuar



  Bb             C      D     A
Santiago no duerme más la siesta
     Bb             C      D     D
Santiago no duerme más la siesta



[Solo] Sobre >>> [B D A G -- B D G]  x 4

e|----------------------------
B|----------------------------
G|---------------2-4-2-4------
D|--------2-4-5---------------
A|-2-4-5----------------------
E|----------------------------

e|------------------------------------------------------------18~18~18~---|
B|--19b19b19b19b19b--19-17-15-14---14-15----14-15-------12----------------|
G|---------------------------------------14-------14-16-------------------|


E         G               D           C B C
 algunas personas nunca comprenderán,
E          G             F#          F# G A
 amargo el obrero no puede continuar.

------------------------------------------------------
Bueno ahi tenes jirafa tu tema justiciero jaja.. a las chicas que quieran conoce
un chico igual a ciro agreguen este mail > rogerbiderbost@hotmail.com
Este fichero es trabajo propio de su transcriptor y representa su interpretación personal de la canción. El material contenido en esta página es para exclusivo uso privado, por lo que se prohibe su reproducción o retransmisión, así como su uso para fines comerciales.

Fuente: Santiago: Letra y Acordes (LaCuerda.net)


Otras partituras que podrían interesarte: