acordes.cc 
 letras y acordes > e > enrique bunbury > san cosme y san damián diccionario de acordes 
San Cosme y San Damián de Enrique Bunbury
AUTOR: Enrique Bunbury, Rafa Domínguez
Enrique Bunbury Tabs
LaCuerda.net
imprimir San Cosme y San Damián de Enrique Bunbury 
Intro:

Se repite 2 veces
1------------------------------------------------------
2------------------------------------------------------
3-----------------0------3---0---3--0--------0------
4---------0 - 3---------------------------3-----------
5------------------------------------------------------
6---------------------------------------------------3--

1------------------------------------------------------
2------------------------------------------------------
3-----------------0------3---0---3--0--------0------
4---------0 - 3---------------------------3-----------
5------------------------------------------------------
6-------------------------------------------------------


SOLm               REm
Un enjambre de estrellas 
SOLm              REm
para que no te pierdas 
RE#                           SOLm
talismanes contra toda clase de males 
RE#                 FA
y un christmas de navidad 
             SOLm
que sepamos dónde estás

SOLm               REm
desplegamos los mapas de todos los sueños 
SOLm               REm
nos volvemos a encontrar 
RE#                           SOLm
en un punto entre San Cosme y San Damián
RE#                FA
los lobos hacen jauría 
            SOLm
que poesía de voracidad
          
         RE#
y es tan frágil la voz
            REm
y es tan débil que soy
 RE#
como una urna de cristal
       LA#
que se va a quebrar


 

RE#
y es tan frágil la voz
            REm
y es tan débil que soy
 RE#
como una urna de cristal
       LA#
que se va a quebrar

DOm               FA
como un verano que pasó
RE                  SOLm
que empiezo a echar de menos 
LA#             REm
como una cucharada de sal 
          RE#                SOLm
que se disuelve en zigzag en el mar

RE#
y es tan frágil la voz
            REm
y es tan débil que soy
 RE#
como una urna de cristal
       LA#
que se va a quebrar

RE#
y es tan frágil la voz
            REm
y es tan débil que soy
 RE#
como una urna de cristal
       LA#
que se va a quebrar


Planetasur
Este fichero es trabajo propio de su transcriptor y representa su interpretación personal de la canción. El material contenido en esta página es para exclusivo uso privado, por lo que se prohibe su reproducción o retransmisión, así como su uso para fines comerciales.

Fuente: San Cosme y San Damián: Letra y Acordes (LaCuerda.net)


Otras partituras que podrían interesarte: