acordes.cc 
 letras y acordes > d > divididos > sábado diccionario de acordes 
Sábado de Divididos
AUTOR: D.M. Arnedo, R.J. Mollo
Divididos Tabs
LaCuerda.net
imprimir Sábado de Divididos 
Intro: Riff A

(Con Riff A o E7)
No eran mas de seis
Y uno dijo yo

Bailaraon ropa a ropa
Salieron a saquear

El de saco beige
Se agacho ante el rey

Hombres simulados 
Con olor a Hotel

G7
  Acariciando lo aspero
     F#7
  El sabado pide un beso
                     E7 (o Riff A) 
  Besame, besame, besame 
  
  Dala vuelta y besame
  
  Besame y da la vuelta

Es un buen numero el seis
Te permitis llorar
Te da asco el overol
Y con un jean lo extrañas

Con Riff A
Sabado, Sabado
Sabado, Sabado 

  Acariciando lo aspero...

  Riff B

F#7  
  Acariciando lo aspero 
     F7
  El sabado pide un beso

  Riff A


Riff A
                             x3
||-0------------------3--|--0--0-------------||
||---5--2--2>4----2>0----|--------2--2>4-----||
||-------------2---------|----------------2--||
||-----------------------|--4--2-------------||
||-----------------------|--3--2-------------||
||-----------------------|-------------------||

Riff B

||-------------7--7-6--6--5--5--3--3--0----0--1--2---||
||-7--7--5--5----------------------------------------||
||---------------------------------------------------||
||---------------------------------------------------||
||---------------------------------------------------||
||---------------------------------------------------||
Este fichero es trabajo propio de su transcriptor y representa su interpretación personal de la canción. El material contenido en esta página es para exclusivo uso privado, por lo que se prohibe su reproducción o retransmisión, así como su uso para fines comerciales.

Fuente: Sábado: Letra y Acordes (LaCuerda.net)


Otras partituras que podrían interesarte: