acordes.cc 
 letras y acordes > b > bersuit vergarabat > ruego diccionario de acordes 
Ruego de Bersuit Vergarabat
AUTOR: Gustavo Cordera
Bersuit Vergarabat Tabs
LaCuerda.net
imprimir Ruego de Bersuit Vergarabat 
INTRO:

    Eb5                           D5  Eb5
e-|-------------------------------------|----|-
B-|-------------------------------------|----|-
G-|-------------------------------------|----|-
D-|-8-8--8-8-8--8-8---8-8--8-8-8--7-7-8-|-x2-|-
A-|-6-6--6-6-6--6-6---6-6--6-6-6--5-5-6-|----|-
e-|-------------------------------------|----|-
                                                                              
    Eb5               E5         D5  C5
e-|---------------------------------------|-
B-|---------------------------------------|-
G-|---------------------------------------|-
D-|-8-8--8-8-8--8-8---9-9--9-9-9\7-7\5--5-|-
A-|-6-6--6-6-6--6-6---7-7--7-7-7\5-5\3--3-|-
E-|---------------------------------------|-

Em
Alegatos de un siervo cansado, 
                       Ebm
que te hizo frente una vez, 
Em
rompí las cadenas de un esclavo, 
                Ebm
que ayer me delato.

Em 
No puedo, no puedo, clavado en la pared, 
              Ebm
con ecos y alaridos, 
Em
nuevos corazones, mas seran desilusión, 
             Ebm
todo se aprendió, 
D           C          F
no nos hace falta otra tempestad. 

   F#                            F
Un angel demencial, ordena aniquilar, 
   F#                             F
piruetas para atras, bardo, dispersión, 
   F#                           F
tu trance singular trajo devastación, 
   F#                            C# B
no nos dejaste nada ni para sobornarte. 

  Em
Suena en una orquesta de ocasión, 
                Ebm
partituras de salidas, 
Em
marchas de triunfo, que no son, 
                    Ebm
más que manchas sin color. 

Em
No me agache para besar tus pies, 
               Ebm
necesito tu perdón, 
Em
nada explica más a la verdad, 
        Ebm
que la anulación. 

D          C        F                 D/F#
Te dí casi todo, no quieres algo más, tu tienes algo más. 

    G   C           G    G/F#   Em
POR QUE ME NEGAS EL SOL? 
D       C  C/B            D
JUSTO A MI QUE TE LO PIDO TANTO
    G   C           G    G/F#   Em
POR QUE ME NEGAS EL SOL? 
D       C                 D     D7
JUSTO A MI QUE TE LO PIDO TANTO

Em  C   G
Este fichero es trabajo propio de su transcriptor y representa su interpretación personal de la canción. El material contenido en esta página es para exclusivo uso privado, por lo que se prohibe su reproducción o retransmisión, así como su uso para fines comerciales.

Fuente: Ruego: Letra y Acordes (LaCuerda.net)


Otras partituras que podrían interesarte: