acordes.cc 
 letras y acordes > b > bersuit vergarabat > requiem diccionario de acordes 
Requiem de Bersuit Vergarabat
AUTOR: -?-
Bersuit Vergarabat Tabs
LaCuerda.net
imprimir Requiem de Bersuit Vergarabat 
Riff 1
e||-----------------5-||
B||-----------------6-||
G||-----5-4-----------||
D||-6-7---------7-5-3-||
A||---------5-7-----5-||
E||-------------------||

Riff 2
e||-----------------||
B||---------------8-||
G||-------5-4-7-5-7-||
D||-6-7-----------5-||
A||-----7---------7-||
E||-----------------||

Dm   Dm9                    D9/F#
Suena    y tiembla este espiritu,
        Eb     Eb6         D
hasta desaparecer te dejo todo,
 Riff 2                      E9b13 | Riff 1
no es cansancio es que no hay mas.
No escuches lo que digo,
mira mi expresion letal
jugo de moras,
el desconcierto pudo más.
 G
CHAU

Acordes 
       E  A  D  G  B  E
Dm9    x  x  0  2  3  0
Eb6    x  6  5  4  4  3
E9b13  0  0  2  0  3  3
Este fichero es trabajo propio de su transcriptor y representa su interpretación personal de la canción. El material contenido en esta página es para exclusivo uso privado, por lo que se prohibe su reproducción o retransmisión, así como su uso para fines comerciales.

Fuente: Requiem: Letra y Acordes (LaCuerda.net)


Otras partituras que podrían interesarte: