acordes.cc 
 letras y acordes > c > claudio cuellar > quisiera diccionario de acordes 
Quisiera de Claudio Cuellar
AUTOR: Claudio cuellar
Claudio Cuellar Tabs
LaCuerda.net
imprimir Quisiera de Claudio Cuellar 
          
  
Intro
         G                   Cadd9                  G
e|--------------------|----------------------|---------------3---|
B|--3-------3------3--|--3--------3-------3--|---3--------3------|
G|-----0-------0------|-----0--------0-------|------0------------|
D|---------------0----|--------2-------------|-------------------|
A|--------2-----------|--3--------------3----|---------2---------|
E|--3-----------------|----------------------|---3---------------|            

            C                      
e|-------------------------|
B|--1-------1---1--------1-|
G|-----0-----------0-------|
D|--------2-----------0----|
A|--3-----------2----------|
E|-------------------------|


            G                      Cadd9                G
e|--------------------|----------------------|---------------3---|
B|--3-------3------3--|--3--------3-------3--|---3--------3------|
G|-----0-------0------|-----0--------0-------|------0------------|
D|---------------0----|--------2-------------|-------------------|
A|--------2-----------|--3--------------3----|---------2---------|
E|--3-----------------|----------------------|---3---------------|

            Cadd9
e|--3----------------------|
B|--3----------------------|
G|--0----------------------|  G, Cadd9, G, Cadd9, Cadd9
D|--2----------------------|
A|--3----------------------|
E|--0----------------------|


Verso-1----Arpegeo------------------------------------

          G          Cadd9                 G     Cadd9 
Quisiera enfrentar este dolor que hay en mi y sonreir
     D               C              G      Cadd9 
quisiera poder abrazarte sin decir nada irme de aqui
 D                       C         G             D/Dsus         
pero no existe el momento si no estas aqui por mi
   G                 Cadd9        G                       
y esque no puedo evitarlo el sentirme asi 
         Cadd9              D         C   
que no puedo llegar hasta a ti 


Pre-coro---Rasgeo-------------------------------------
  
        G         Cadd9                 G        Cadd9
Quisera desifrar porque te fuiste sin decir adios
    C                   D                G        Cadd9
quisiera decir que yo puedo estar sin ti pero no puedo
   D                  C           G   
y cuando recuerdo tu risa me dan ganas de llorar 
       Cadd9                D         C
y tambien de llegar hasta ti


Coro-------Rasgeo-------------------------------------

        G                 Cadd9       G                   Cadd9
Porque nadie aprecia las cosas hasta verlas tan lejos de si 
            C           D            G   Cadd9  D
hay tantas cosas que decir y no las dices
      G                   Cadd9      G                     Cadd9
y si piensas entre otras cosas y te fijas muy dentro de ti 
         C         D                G  D         Em  D  D/Dsus
fuera de todas apariencias te falta algo aslo salir 


G, Cadd9, D, G, Cadd9, D, Em, C, G, Cadd9, D, G, 
Cadd9, G, Cadd9, Cadd9


Verso-2----Arpegeo------------------------------------

            G                Cadd9               G     Cadd9  
y hoy me encuentro aqui tan solo y triste sin poder salir
     D                    C            G       Cadd9     
quisiera salir de este abismo pero quisiera salir sin ti
   D                       C          G                      D  D/sus
y esque mis fuerzas se han ido y hay cosas que no puedo hacer
     G                   Cadd9      G               Cadd9
pero hay una voz que me dicta solo debes vivir y luchar
                   D         C
y llegar hasta el fin 


Coro-------Rasgeo-------------------------------------

        G                 Cadd9       G                   Cadd9
Porque nadie aprecia las cosas hasta verlas tan lejos de si 
            C           D            G   Cadd9  D
hay tantas cosas que decir y no las dices
      G                   Cadd9      G                     Cadd9
y si piensas entre otras cosas y te fijas muy dentro de ti 
         C         D                G  D         Em  D  D/Dsus
fuera de todas apariencias te falta algo aslo salir 


G, Cadd9, D, G, Cadd9, D, D.



Acordes :

      Cadd9               
e|------3-------|
B|------3-------|
G|------0-------|
D|------2-------|
A|------3-------|
E|------0-------|

      D/Dsus
e|------3-------|
B|------3-------|
G|------2-------|
D|------0-------|
A|------0-------|
E|------0-------|
Este fichero es trabajo propio de su transcriptor y representa su interpretación personal de la canción. El material contenido en esta página es para exclusivo uso privado, por lo que se prohibe su reproducción o retransmisión, así como su uso para fines comerciales.

Fuente: Quisiera: Letra y Acordes (LaCuerda.net)


Otras partituras que podrían interesarte: