acordes.cc 
 letras y acordes > l > la ley > que no destrocen tu vida diccionario de acordes 
Que no destrocen tu vida de la Ley
AUTOR: Jorge Gonzalez
la Ley Tabs
LaCuerda.net
imprimir Que no destrocen tu vida de la Ley 
Intro

   Dm A# F A
e|-----------|
B|-----6h10b-|
G|-5h7-------|   x2
D|-----------|
A|-----------|
E|-----------|

Dm          A#
Como escapar?
F              A
Son tus padres y amigos
Dm         A#
Quieren estar
F          A
en tu vida para siempre
Dm                 A#
Tu y ella se aman tanto
Gm            A
No arriesgues más
Dm          A#
No permitas que sus canas
Gm          A
te arruguen tan temprano
    A#       A
oh oh oh oh oh oh

          Dm          Em7  F  Em7
Que no destrocen tu vida
                Dm           Em7  F  Em7
No dejes que destrocen tu vida

Dm        A#
Tienen razón
F              A
Te han cuidado 20 años
Dm         A#
Eres su piel
F           A
Que serías sin sus besos
Dm                    A#
Pero es tiempo que te dejen
Gm            A
No arriesgues más
Dm              A#
No permitas que sus fracasos
Gm                A
te arrastren y te maten

          Dm          Em7  F  Em7
Que no destruyan tu vida
                Dm          Em7  F  Em7
No dejes que destruyan tu vida


Gm       A#            Dm
No dejes que por nadie tu y ella
Gm              A
se lleguen a odiar
G              A
oh oh oh oh oh oh

          Dm          Em7  F  Em7
Que no destruyan tu vida...

Final

   Dm          Em7         F           Em7
e|-------12----------12----------12----15-13-12----|
B|----15----15----15----15----15----15----------15-|
G|-14----------14----------14----------------------|
D|-------------------------------------------------|
A|-------------------------------------------------|
E|-------------------------------------------------|

   Dm          Em7         F           Em7
e|-------12----------12----------12----15-17-15-|
B|----15----15----15----15----15----15----------|
G|-14----------14----------14-------------------|
D|----------------------------------------------|
A|----------------------------------------------|
E|----------------------------------------------|
Este fichero es trabajo propio de su transcriptor y representa su interpretación personal de la canción. El material contenido en esta página es para exclusivo uso privado, por lo que se prohibe su reproducción o retransmisión, así como su uso para fines comerciales.

Fuente: Que no destrocen tu vida: Letra y Acordes (LaCuerda.net)


Otras partituras que podrían interesarte: