acordes.cc 
 letras y acordes > j > josé josé > presiento diccionario de acordes 
Presiento de José José
AUTOR: Nacho Gonzalez
José José Tabs
LaCuerda.net
imprimir Presiento de José José 

Intro:

1. -10-8-6-|-8-6-5-|-10-8-6-5-6-8-6-5--|
2. --------|-------|-------------------|
3. --------|-------|-------------------|
4. --------|-------|-------------------|
5. --------|-------|-------------------|
6. --------|-------|-------------------|

*Verso:

 Am                        F
Presiento que me va a suceder,
        G          C
lo que tanto he temido,
  Am                       F
presiento que te voy a querer,
                   G
como a nadie he querido,
      Am       F        G      C
y en todo presiento tu amooooooor.

*
Presiento que contigo tendre,
lo que tanto he anhelado,
presiento que por ti alcanzare,
todo lo que he soñado.

^Coro:

   Am     Em
Y rio, y lloro,
    D                Em
y siento que ya te adoro,
   Am       Em
y sueño, y gozo,
   D             Em
y todo lo veo hermoso.

1. ----------------|
2. ----------------|
3. -----9-5-7-7-5--|
4. -5-7------------|
5. ----------------|
6. ----------------|

*
Presiento que me va a suceder,
lo que tanto he temido,
presiento que te voy a querer,
como a nadie he querido.

^
Y ries, y lloras,
y sientes que ya me adoras,
y sueñas, y gozas,
y pides mas de estas cosas.

^
Lairala lairala,
Lairalalala laira,
Lairala lairala,
Lairalalalaira la.

Outro:

1. -10-8-6-|-8-6-5-|-10-8-6-5-6-8-6-5--|
2. --------|-------|-------------------|
3. --------|-------|-------------------|
4. --------|-------|-------------------|
5. --------|-------|-------------------|
6. --------|-------|-------------------|


Dudas o comentarios, a mi mail. Suerte!!!!
Este fichero es trabajo propio de su transcriptor y representa su interpretación personal de la canción. El material contenido en esta página es para exclusivo uso privado, por lo que se prohibe su reproducción o retransmisión, así como su uso para fines comerciales.

Fuente: Presiento: Letra y Acordes (LaCuerda.net)


Otras partituras que podrían interesarte: