acordes.cc 
 letras y acordes > a > attaque 77 > perfección diccionario de acordes 
Perfección de Attaque 77
AUTOR: -?-
Attaque 77 Tabs
LaCuerda.net
imprimir Perfección de Attaque 77 
Si bien esta cancion es de Otras Canciones, yo la saque de Trapos...
Los solos estaban en la otra transcripción, pero le falta una parte al último...
Aca va completo...

e|--------------------------------------------------|
B|----10---10---10---10---10---10---10---10---10----|
G|--7----7----7----7----7----7----7----7----7----9b-| no estoy seguro de la cant
D|--------------------------------------------------| del 7 y 10...hasta que esc
A|--------------------------------------------------|
E|--------------------------------------------------|

e|-----------------------------------------------------------|
B|----10---10-8-7---10---10-8-7---10---10-8-7---------10h8h7-|
G|--7----7--------7----7--------7----7---------10h8h7--------|
D|-----------------------------------------------------------|
A|-----------------------------------------------------------|
E|-----------------------------------------------------------|

Los 10h8h7 son repetidos varias veces, y luego cuanto Ciro se pone a cantar 'aaa
vuelven a los acordes D5 E F#5 G5 A5 asi un par de veces...hasta que escuchen de
solo, tocando:

e|---------------10--10-10-9-7--9-7----------------|
B|-----------------------------------9-7-6h7h6-6-9-|
G|--7b-7b-7-9-7------------------------------------|
D|-------------------------------------------------|
A|-------------------------------------------------|
E|-------------------------------------------------|

Y entonces vuelve a 
e|-------------------------------------------------------------------------|
B|----------10h8h7--------10h8h7---------------10h8h7--------10h8h7--------|
G|--10h8h7---------10h8h7--------10h8h7-10h8h7--------10h8h7--------10h8h7-| var
D|-------------------------------------------------------------------------|
A|-------------------------------------------------------------------------|
E|-------------------------------------------------------------------------|

Y entonces si el final del otro tab
e|-----10---------------------|
B|--7-----10-7h8-7-----8-7b---|
G|-----------------9-8------7-|
D|----------------------------|
A|----------------------------|
E|----------------------------|

Como veran no era mucho lo que faltaba, pero me dejaba un espacio vacio, y no en
Correcciones, bla bla bla, escribanme
*SI ALGUIEN TIENE EL SOLO DE 'NO ME ARREPIENTO DE ESTE AMOR' ME LO PUEDE PASAR? 
Este fichero es trabajo propio de su transcriptor y representa su interpretación personal de la canción. El material contenido en esta página es para exclusivo uso privado, por lo que se prohibe su reproducción o retransmisión, así como su uso para fines comerciales.

Fuente: Perfección: Letra y Acordes (LaCuerda.net)


Otras partituras que podrían interesarte: