acordes.cc 
 letras y acordes > e > estopa > penas con rumba diccionario de acordes 
Penas con rumba de Estopa
AUTOR: David Muñoz, José Muñoz
Estopa Tabs
LaCuerda.net
imprimir Penas con rumba de Estopa 
  En el intro rasgueamos los acordes x2 y seguido el punteo


  Amx2               SOLx2               FAx2                 E
e----------------------------------------------------------------|
B----------------------------------------------------------------|
G----------------------------------------------------------------|
D----------------------------------------------------------------|(x2)
A-----2-3-2-5-3-2-0-2-----0-2-0-3-2-0---0--------0-2-0-3-2-0-0---|
E-------------------------------------3---------------------3----|

Am
Que oscuro tienes el pelo
SOL
nubla todas las estrellas
FA
se ha detenido mi tiempo
                       E
se ha acabao mi primavera
Am
Bebo tu dulce veneno
SOL
lo pruebo y provoca la lluvia
FA
ciego de tu sentimiento
                            E
me ahogo en el mar de tus dudas
Am
Porque las penas con rumba
SOL
son menos penas morena
FA
mi corazón se derrumba
                         E
que es un castillo de arena.
Am
Yo ya no vivo en tu alfombra
SOL
yo vivo donde tu quieras
FA
confundeme con tu sombra
                           E
quiero quemarme en tu hoguera.
Am
No es que no te eche de menos
SOL
es que se me encoge el alma
FA
cuando no estas no te veo
                   E
se me pudre la mirada.
Am
Y pienso que soy un enfermo
SOL
necesito medicina
FA
un par de dosis de besos
                 E
antes de cada comida.
Am
Porque las penas con rumba
SOL
son menos penas morena
FA
mi corazón se derrumba
                         E
que es un castillo de arena.
Am
Yo ya no vivo en tu alfombra
SOL
vivo donde tu quieras
FA
confundeme con tu sombra
                           E
quiero quemarme en tu hoguera.

 Amx2               SOLx2               FAx2                 E
e----------------------------------------------------------------|
B----------------------------------------------------------------|
G----------------------------------------------------------------|
D----------------------------------------------------------------|(x2)
A-----2-3-2-5-3-2-0-2-----0-2-0-3-2-0---0--------0-2-0-3-2-0-0---|
E-------------------------------------3---------------------3----|


Am
Porque las penas con rumba
SOL
son menos penas morena
FA
mi corazón se derrumba
                         E
que es un castillo de arena.
Am
Yo ya no vivo en tu alfombra
SOL
vivo donde tu quieras
FA
confundeme con tu sombra
                          E
quiero quemarme en tu hoguera.

PARA MI SUENA MEJOR CON ESTOS ACORDES SE LA DEDICO
A TODA MI FAMILIA Y AMIGOS , QUE LA DISFRUTEN.
Este fichero es trabajo propio de su transcriptor y representa su interpretación personal de la canción. El material contenido en esta página es para exclusivo uso privado, por lo que se prohibe su reproducción o retransmisión, así como su uso para fines comerciales.

Fuente: Penas con rumba: Letra y Acordes (LaCuerda.net)


Otras partituras que podrían interesarte: