acordes.cc 
 letras y acordes > r > rata blanca > otoño medieval diccionario de acordes 
Otoño medieval de Rata Blanca
AUTOR: Roberto Conso
Rata Blanca Tabs
LaCuerda.net
imprimir Otoño medieval de Rata Blanca 

1 SOLA GUITARRA.
GUITARRA CLASICA.

e:--5--7--8-----------7--5---------------------------------------------------|
B:--------------5-----------6-----5-----5----------------6-------------------|
G:-----------------------------7-----7--------7--5--7-7----7--5--4--5----5---|
D:-----------7-----7--------0--------------7--------0------------------------|
A:--------0-----------------------------0------------------------------------|
E:------------------------------------------------------------------1--1----1|


                                                   


e:------------------------------------------------|
B:------------------------------------------------|
G:--4--------------5--4---------------------------|      
D:-----7--6---6----------7----7-7----7----7-7-----|
A:-----------------------0--0------0----0------0--|
E:--------0-0---0---------------------------------|




e:--5--7--8-----------7--5---------------------------------------------------|
B:--------------5-----------6-----5-----5----------------6-------------------|
G:-----------------------------7-----7--------7--5--7-7----7--5--4--5----5---|
D:-----------7-----7--------0--------------7--------0------------------------|
A:--------0-----------------------------0------------------------------------|
E:------------------------------------------------------------------1--1----1|


                                                   


e:------------------------------------------------|
B:------------------------------------------------|
G:--4----------------4---5----5-5----5----5-5-----|      PARTE MUY FACIL
D:-----7--6---6----7------------------------------|
A:-----------------------0--0------0----0------0--|
E:--------0-0---0---------------------------------|




e:---------------------------------------------------------------------------|
B:------------5---6----5--5---------------6---------------5---------------5--|
G:--4--5--7-7---7---7-----------7--5--7-7---7--5--4--5-5-----5--4--5--7-7---7|
D:--------0---------------------------0-------------------------------0------|
A:---------------------0-----0-----------------------0-----------------------|
E:---------------------------------------------------------------------------|


                                                        


e:----------------------------------5------------------|
B:-6-------6--8--8/10---9--------------0--9------------|
G:---7-----5--5--8/10---9--9-----9--------9--9-----9---|    PARTE FACIL
D:-----------------------------------------------------|
A:-----------------------------------------------------|
E:----------------------0-----0-----------0-----0------|




e:--5--7--8-----------7--5---------------------------------------------------|
B:--------------5-----------6-----5-----5----------------6-------------------|
G:-----------------------------7-----7--------7--5--7-7----7--5--4--5----5---|
D:-----------7-----7--------0--------------7--------0------------------------|
A:--------0-----------------------------0------------------------------------|
E:------------------------------------------------------------------1--1----1|


                                                   


e:------------------------------------------------|
B:------------------------------------------------|
G:--4--------------5--4---------------------------|      PARTE MUY FACIL
D:-----7--6---6----------7----7-7----7----7-7-----|
A:-----------------------0--0------0----0------0--|
E:--------0-0---0---------------------------------|





e:--8---10---12----8--10--12------------7----------7---8---10---12---8--10-12|
B:-10---12---13---10--12--13---9---10---9--9---10--9--10---12---13--10--12-13|
G:-----------------------------9----9------9----9----------------------------|
D:---------------------------------------------------------------------------|
A:--0---------0------------0---------------------------0---------0----------0|
E:-----------------------------0--------0----------0-------------------------|





e:----------7---------7-----8---7---5-------------------------4---8--10-|
B:---9--10--9--9--10--9----10---8---6---5---6---6/8--5--6--5--5--10--12-|
G:---9---9-----9---9--------------------4---4--------5--5--5------------|   PART
D:--------------------------0-------------------------------------------|
A:---------------------------------------------------0-----0------------|     CO
E:---0------0---------0-----------------0---------------------0---------|





e:----8---10---12---8--10--12----7---8--10---7---8--10---8---10---12---8--10-|
B:---10---12---13--10--12--13----9--10--12---9--10--12--10---12---13--10--12-|
G:---------------------------------------------------------------------------|
D:---------------------------------------------------------------------------|
A:----0---------0-----------0----------------------------0---------0---------|
E:-------------------------------0-------0-----------0-----------------------|


                                                                     


e:-12----7---8--10---7---8--10----8---7--5--7--5--4--5--5-----7--8--8--|
B:-13----9--10--12---9--10--12---10---8--6--8--6--5--5-----5--5--5----5|
G:---------------------------------------------------------------------|     PAR
D:--------------------------------0------------------------------------|
A:--0------------------------------------------------0--------0--0-----|      CO
E:-------0-------0-----------0-----------------------------------------|





e:---10---12--13--13-------8--10--12--12------10--12--13--13-------8--10--12-|
B:---12---13--15------15--10--12--13-----13---12--13--15------15--10--12--13-|
G:---------------------------------------------------------------------------|
D:-------------0---------------------------------------0---------------------|
A:---------------------------------0---------------------------------------0-|
E:---------------------------------------------------------------------------|





e:-12-------10--12--13--13-------13----15---17-------10---8--4--4------5--7--|
B:-----13---12--13--15------15---15----17---18-------12--10--5-----5---5--5--|
G:---------------------------------------------------------------------------|  
D:-------------------0-------------------------------------------------------|
A:---------------------------------------------------------------------------|  
E:-----------------------------------------------------------0---------0--0--|





e:--5--7--8-----------7--5---------------------------------------------------|
B:--------------5-----------6-----5-----5----------------6-------------------|
G:-----------------------------7-----7--------7--5--7-7----7--5--4--5----5---|
D:-----------7-----7--------0--------------7--------0------------------------|
A:--------0-----------------------------0------------------------------------|
E:------------------------------------------------------------------1--1----1|


                                                   

                                Am
e:---------------------------------0---------|
B:-------------------------------1-----------|    PARTE MUY FACIL
G:--4--------------5--4-------2--------------|      
D:-----7--6---6------------2-----------------|
A:-----------------------0-------------------|
E:--------0-0---0----------------------------|


FIN


Esta es la más difícil que he sacado, 
y tambien va por ti MAYRA
Este fichero es trabajo propio de su transcriptor y representa su interpretación personal de la canción. El material contenido en esta página es para exclusivo uso privado, por lo que se prohibe su reproducción o retransmisión, así como su uso para fines comerciales.

Fuente: Otoño medieval: Letra y Acordes (LaCuerda.net)


Otras partituras que podrían interesarte: