acordes.cc 
 letras y acordes > d > divididos > ortega y gases diccionario de acordes 
Ortega y Gases de Divididos
AUTOR: Diego Arnedo, Ricardo Mollo, Gil Solá
Divididos Tabs
LaCuerda.net
imprimir Ortega y Gases de Divididos 
   ligados
1 --_____--------------------------------------------------
2 --7-9-7-----7-5------------------------------------------
3 --7-9-7-----7-6-6-----6----------6-----------------------
4 ----------------7-----7--7-9---9-7-7---------------------
5 -------------------------7-7---7---7---------------------
6 ---------------------------------------------------------

   ligados
1 --_____--------------------------------------------------
2 --7-9-7-----7-5---------------5-5-5----------------------
3 --7-9-7-----7-6-6-----6-------6-6-6----------------------
4 ----------------7-----7--7------------9-7----------------
5 -------------------------7------------7-7----------------
6 ---------------------------------------------------------

RE           LA     MI       LA
Comprándolo todo, Ortega y gases.
RE         LA      MI        LA
Sonrisa de ida, la fiesta empezó.
RE                            LA
Quieto el móvil, calle para atrás.
RE                             LA
Gente germinando, esperando el sol.
RE           LA     MI           LA
Nicho con cortina mutual sin carnet,
RE           LA          MI        LA
un manual de ida, un manual pa' volver.


De la uva al vino, de la papa al puré
de la papa al vino y al voto después.
Entre chiste y chiste se me confundió
si me lleva el pingo o el pingo soy yo.
La moral ajena mostró el almidón.
Chacarera duerme cuando sale el sol.

Comprándolo todo, Ortega y Gases...

De la uva al vino, de la papa al puré...
Este fichero es trabajo propio de su transcriptor y representa su interpretación personal de la canción. El material contenido en esta página es para exclusivo uso privado, por lo que se prohibe su reproducción o retransmisión, así como su uso para fines comerciales.

Fuente: Ortega y Gases: Letra y Acordes (LaCuerda.net)


Otras partituras que podrían interesarte: