acordes.cc 
 letras y acordes > p > panda > oro diccionario de acordes 
Oro de Panda
AUTOR: Yo meroo
Panda Tabs
LaCuerda.net
imprimir Oro de Panda 
Aquí va la canción de 'oro', está chida, espero que les agrade....

G D Em C/D G D C D (X2)

Intro
3-3-3-3-3-2-0--0-2----0-0-0-0-0--------------3-3-3-3-3-2-0--0-2-----------0---
--------------3-----------------3-1-0-1-3------------------3-------1-1-1-3-3--
------------------------------------------------------------------------------
------------------------------------------------------------------------------
------------------------------------------------------------------------------
------------------------------------------------------------------------------ 

Verso 1:
G
Nunca oí consejos
      D
y me enamore 
Em
yo al ras del suelo
      C      D
y tu siempre volando 
C                D    C  D
tan alto, tan alto.
G
Te gusta el dinero y
      D
la comodidad
Em
por eso me dejas
      C      D
muy triste y herido
C                  D   C  D
de muerte, que suerte.


******Coro*******
G 
Oro,
D                  Em 
tu me has cambiado por oro
Bm
te has olvidado 
   Am             D
de lo sentimental
      Em          C/D 
por un puño de metal.

G 
Oro,
D              Em 
el amarillo del oro
Bm
te gusto mas
       Am            D
de lo que yo te ofreci
      Em            C/D 
y ahora tu te vas de mi
G
oro
 D            G
el oro cambio tu amor.

 
Verso 2:
G
Yo te regale
      D
una luna sin miel
Em
una cama blanda
      C      D
y una almohada repleta
C                D   C  D
de sueños pequeños.
G
Ya te aburrió todo
      D
lo que tengo aqui
Em
y tu amor se fue
      C      D
por el hoyo que hay
C                      D   C  D
en mis bolsillos, vacios.
 

Coro:
G 
Oro,
D                  Em 
tu me has cambiado por oro
Bm
te has olvidado 
   Am             D
de lo sentimental
      Em          C/D 
por un puño de metal.

G 
Oro,
D              Em 
el amarillo del oro
Bm
te gusto mas
       Am            D
de lo que yo te ofreci
      Em            C/D 
y ahora tu te vas de mi
G
oro
 D            G
el oro cambio tu amor.


Circulo: C D G  Em (4)
Bajeo: (2)
---------------------
---------------------
---------------------
------------0-0-0----
-3-3-3-3-3-----------
---------------------

---------------------
---------------------
---------------------
---------------------
---------------------
-3-3-3-3-3-0-0-0-----


Coro Lento:
G 
Oro,
D                  Em 
tu me has cambiado por oro
Bm
te has olvidado 
   Am             D
de lo sentimental
      Em          C/D 
por un puño de metal.

G 
Oro,
D              Em 
el amarillo del oro
Bm
te gusto mas
       Am            D
de lo que yo te ofreci
      Em            C/D 
y ahora tu te vas de mi
G
oro
 D            G
el oro cambio tu amor.


Coro Ultimo: (dist)
G 
Oro, 
D                  Em 
tu me has cambiado por oro
Bm
te has olvidado 
Am             D
de lo sentimental
Em          C/D 
por un puño de metal.
 G D Em C
Oro, oooooo
G D Em C
Oro, oooooo
G 
Oro,
D      G
cambio tu amor.
Este fichero es trabajo propio de su transcriptor y representa su interpretación personal de la canción. El material contenido en esta página es para exclusivo uso privado, por lo que se prohibe su reproducción o retransmisión, así como su uso para fines comerciales.

Fuente: Oro: Letra y Acordes (LaCuerda.net)


Otras partituras que podrían interesarte: