acordes.cc 
 letras y acordes > a > attaque 77 > onirico diccionario de acordes 
Onirico de Attaque 77
AUTOR: Pertusi
Attaque 77 Tabs
LaCuerda.net
imprimir Onirico de Attaque 77 
Intro: (B A G) x2 *Punteo 
B        A              G             
En vigilia de ensueños me vi, 
B        A               G
controlar mi conciencia de ser 
B        A              G
desplazaba mi punto de encaje
         E 
hacia algún lugar 
C                      B                        A  D  Intro
donde no hacen falta alas para volar,   sentir. 
  
Desde el aire fijé mi atención
en visiones sin explicación
desbordaba energía estallaba en intensidad
me precipitaba y volvía a volar.  
G            B 
Sobre las sierras y el mar 
A          E
sobre la ciudad vi mi barrio
G            B                 A              C     D 
el cielo invita a jugar, a no despertar.   
Instru: (B A G) 

Yo perdía en el intento
MI incierta identidad
amanecía vacilando despertar
y permacnecía en el mismo lugar, despierto. 

Pasan los días sin sol
mi vida es una mueca triste
me preguntaste por qué, y no supe hablar.
Me siento sin corazón
me siento tan incompleto
mi cuerpo sabe lo que natura non da
no puedo volar aunque lo intente.   
Solo: E G D A  G  D A B *Punteo   
Pasan los días ...   
*Intro 
E||----------------------------------------------------------|
B||-------------------------------------------------------5-|
G||----7------6-------7--9-7---------7-------6------5----|
D||--9---9--7---7--5---------9-7--9---9--7-----7-5------|
A||----------------------------------------------------------|
E||----------------------------------------------------------|
*Solo
E-------------------------------------------------------------------------------
B-------------------------------------------------------------------------------
G--9~--9--11-12--12-----------------------11--12--11--9~-----9--9---------------
D-----------------------12----10----9----------------------------------12--10--9
A---------------------------------------10--------------------------------------
E-------------------------------------------------------------------------------
Este fichero es trabajo propio de su transcriptor y representa su interpretación personal de la canción. El material contenido en esta página es para exclusivo uso privado, por lo que se prohibe su reproducción o retransmisión, así como su uso para fines comerciales.

Fuente: Onirico: Letra y Acordes (LaCuerda.net)


Otras partituras que podrían interesarte: