acordes.cc 
 letras y acordes > e > enanitos verdes > o quizas vos diccionario de acordes 
O quizas vos de Enanitos Verdes
AUTOR: H. Cantero
Enanitos Verdes Tabs
LaCuerda.net
imprimir O quizas vos de Enanitos Verdes 
(INTRO)

e--0------0-3------3---
B--1--1-----3--3-------
G--0----0---0----0-----
D----------------------
A--3-------------------
E-----------3---------- (x2)

e--0------0-1/3-3-1-0-3p5h3-5-3p5h3-
B--1--1-----------------------------
G--0----0--------------------------
D----------------------------------
A--3-------------------------------
E----------------------------------

e--0------0-3--3--
B--1--1-----3-----
G--0----0---0---0-
D-----------------
A--3--------------
E-----------3-----

C                   G
ya no me miras como antes
F                   G
extraño tu sonrisa complice
C                          G
ya no quiero que estes distante
F                            G
sabiendo cuanto, cuanto te quiero


(PUENTE)
F
si el tiempo que paso 
          Em
fue el mejor para los dos
     F7               G
por qué me queres olvidar?

(CORO)
          C    Em     Am
ya no se trata si fui yo
         F
o quizas vos
           G
fuimos los dos
          C        E    Am
y ahora sabemos que el amor
         F           G
solo se vive si hay dos
                   C
solo se vive de a dos

e--0------0-3------3---
B--1--1-----3--3-------
G--0----0---0----0-----
D----------------------
A--3-------------------
E-----------3---------- (x2)

C                      G
pensando el uno en el otro
F                       G
tratando siempre de ayudarnos
C                      G
aprender a vivir junto a vos
F                               G
va a ser mas facil que si estoy solo

(PUENTE)
(CORO)
(SOLO)
(PUENTE)

ya no se trata si fui yo
o quizas vos
fuimos los dos
y ahora sabemos que el amor
solo se vive si hay dos
solo se vive de a dos
solo se vive de a dos
solo se vive de a doooos
solo se vive
solo se vive de a dos
solo se vive
Este fichero es trabajo propio de su transcriptor y representa su interpretación personal de la canción. El material contenido en esta página es para exclusivo uso privado, por lo que se prohibe su reproducción o retransmisión, así como su uso para fines comerciales.

Fuente: O quizas vos: Letra y Acordes (LaCuerda.net)


Otras partituras que podrían interesarte: