acordes.cc 
 letras y acordes > a > attaque 77 > numancia diccionario de acordes 
Numancia de Attaque 77
AUTOR: -?-
Attaque 77 Tabs
LaCuerda.net
imprimir Numancia de Attaque 77 
INTRO 1
e----------------------------------------------------  
B----------------------------------------------------  
G----------------------0-----------------------------
D----------------0------------------------0----------  
A-2-2--------2-4---4-2----------------2-4---4-2--5---  
E-0-0--0-3-4---------------0-0--0-3-4------------3---  

INTRO 2
e-----------------------------------------------------
B-----------------------------------------------------
G---------------4-4-4--5-5-5--4-4-4--5-5-5--4-2-------
D------------------------------------------------5-2--
A-2-2-2--2-7-5----------------------------------------
E-0-0-0--0-5-3----------------------------------------

RIFF INTRO 1
  E5                      
e--------------------------
B--------------------------
G----------------------0---
D----------------0---------
A-2-2--------2-4---4-2-----
E-0-0--0-3-4---------------

RIFF INTRO 2
  E5                    G5
e---------------------------  
B---------------------------  
G---------------------------
D----------------0----------  
A------------2-4---4-2--5---  
E-0-0--0-3-4------------3---  

RIFF

e-----------------
B-----------------
G-----------------
D-6---4-----------
A-4---2---2---2---
E---------4---0---

SOLO
e-----------------------------------------------|
B-5-5-5--3-2-3--3-2-3-----5-5-5--3-2-3--3-2-3---|
G---------------------2-----------------------3-| X2
D-----------------------------------------------|
A-----------------------------------------------|
E-----------------------------------------------|

e---2-3-2---------2-3-2/12-----2-3/5-7-9-9/10-9-10-10/12--
B-5-------5-3---5------------5----------------------------
G---------------------------------------------------------
D---------------------------------------------------------
A---------------------------------------------------------
E---------------------------------------------------------

e-7/3---------|
B------1/5-5--|
G-------------| X4
D-------------|
A-------------|
E-------------|


NOTA:
Este solo es el del disco en vivo. En la versión de estudio es mas largo.

INTRO 1 (X2) - INTRO 2 

E5

E5
Nada de los que me dijiste vos, 
nada de lo que dije yo
                         RIFF
nada somos sin la suerte
Em
No hay estrellas para ser mejor, 
no hay una sola visión
                            RIFF
cada persona desde su lugar tiene razón.

(RIFF INTRO 1)                 E5         
Andá a saber si vos me mentís,   
(RIFF INTRO 2)               E5        
andá a saber si te miento yo... lo siento

A5                    B5          
Hilaba frases sin ninguna noción 
       G#5             A5
iba perdiendo 3 a 0 al metegol
             INTRO 1 (X2) - INTRO 2
al metegol...

E5
Ganar el tiempo como un ganador, 
perder el tiempo en perdedor
                             RIFF
ganabas mientras yo perdía oyéndote a vos.

E5
Basta de esto no quiero escuchar, 
no entiendo a gente como vos
                              RIFF
siempre prejuicios y machismo siempre ambición

(RIFF INTRO 1)              E5  
Ahora te dije lo que sentí, 
(RIFF INTRO 2)              E5  
ahora me siento mucho mejor... por eso

A5                          B5 
Cuando me encuentro en una buena emoción
          G#5                 A5                 INTRO 1 (X2)
le pido a dios se apiade y me llevé ahí, en lo mejor.

(RIFF INTRO 1)                     INTRO 2
A ver si creés que yo te creí...

E5

SOLO

S.T.
Suena el teléfono en la habitación  y en el contestador
E5 (Tocar y soltar)                RIFF
habla Natassja Kinski: Cómo estás?
E5
Terminemos el juego de una vez tengo cosas que hacer
                                  RIFF
cambia la suerte para mi, ya ves, voy a atender.

(RIFF INTRO 1)           E5  
Ahora me toca ganar a mi 
(RIFF INTRO 2)            E5  
ahora te toca perder a vos

        A5                          B5 
Por eso, cuando me encuentro en una buena emoción
          G#5                 A5                 INTRO 1 (X2)
le pido a dios se apiade y me llevé ahí, en lo mejor.

(RIFF INTRO 1)             RIFF
A lo mejor llegamos al fin.


Referencias:
/ = Deslizar hasta la cuerda indicada (Slide)

NOTA:

Eso es todo, para comentarios, pedidos, puteadas, etc. 
mandenmen un mail a neotokio3@yahoo.com
Este fichero es trabajo propio de su transcriptor y representa su interpretación personal de la canción. El material contenido en esta página es para exclusivo uso privado, por lo que se prohibe su reproducción o retransmisión, así como su uso para fines comerciales.

Fuente: Numancia: Letra y Acordes (LaCuerda.net)


Otras partituras que podrían interesarte: