acordes.cc 
 letras y acordes > d > dos minutos > nos equivocamos de tema diccionario de acordes 
Nos equivocamos de tema de Dos Minutos
AUTOR: -?-
Dos Minutos Tabs
LaCuerda.net
imprimir Nos equivocamos de tema de Dos Minutos 
nos equivocamos de tema  *en vivio con 
los guaguarones S.A. 15 de junio del 2004*


2 minutos


TRANSCRIBED BY RUDY GUZMAN


guzman_84@hotmail.com


mosca: nos equivocamos de tema :P

duh!!

e:------------------------------|
B:------------------------------|
G:------------------------------|
D:-7-7-7-7-7-7-7-7-7-7-7-7--(7)-|
A:-7-7-7-7-7-7-7-7-7-7-7-7--(7)-|
E:-5-5-5-5-5-5-5-5-5-5-5-5--(5)-|


e:------------------------------|
B:------------------------------|
G:------------------------------|
D:-7-7-7-7-7-7-7-7-7-7-7-7--(7)-|
A:-7-7-7-7-7-7-7-7-7-7-7-7--(7)-|
E:-5-5-5-5-5-5-5-5-5-5-5-5--(5)-|


e:------------------------------|
B:------------------------------|
G:------------------------------|
D:-7-7-7-7-7-7-7-7-7-7-7-7--(7)-|
A:-7-7-7-7-7-7-7-7-7-7-7-7--(7)-|
E:-5-5-5-5-5-5-5-5-5-5-5-5--(5)-|


e:------------------------------|
B:------------------------------|
G:------------------------------|
D:-7-7-7-7-7-7-7-7-7-7-7-7--(7)-|
A:-7-7-7-7-7-7-7-7-7-7-7-7--(7)-|
E:-5-5-5-5-5-5-5-5-5-5-5-5--(5)-|



quiere apoyar el redondeo?? *cualquier oxxo o vh* puras doñas!!!!

hillo son mex

herson
17/06/04

mxtabs.net
Este fichero es trabajo propio de su transcriptor y representa su interpretación personal de la canción. El material contenido en esta página es para exclusivo uso privado, por lo que se prohibe su reproducción o retransmisión, así como su uso para fines comerciales.

Fuente: Nos equivocamos de tema: Letra y Acordes (LaCuerda.net)


Otras partituras que podrían interesarte: